Oops, an error
Loading. Please wait.

Majesty Here I Am Tab

version 1
version 1

Intro

Whole song

Interactive

1,507 views 12 this week
no commentswrite comment
1 2 3 4 5
please rate
add to favorites
launch autoscroll
font size
0
reset
how to read this tab
guitar tuner
Tab Pro tools
  • play this tab
  • loop segment
  • change instrument
  • show fretboard
  • metronome
×
Best way to learn
"Majesty Here I Am"
Autoscroll
slow
fast
+/-
esc
set tempo
stop
Contributor
Difficulty
intermediate
Hey guys its me agin...hope your enjoy and DONT FORGET TO RATE!!



Tuning: Standard (Capo 3rd Fret)

Intro:
   Em      D       C9          Em      D       C9
e|-3-----3-2---0-2-0-------0---3-----3-2---0-2-0-------0---------|
B|-3---3---3-------3---3-----3-3---3---3-------3---3-------------|
G|-0-0-----2-2-----0-0---0-----0-0-----2-2-----0-0---0-----------|
D|---------0---------------------------0-------------------------|
A|-----------------3---------------------------3-----------------|
E|-0---------------------------0---------------------------------| 

Verse 1:
   Em      D       C9         D/B            C9
e|-3-----3-2---0-2-0-------0-----------0-------------0-----------|
B|-3---3---3-------3---3-----3-----3-----3-------3-----3---------|
G|-0-0-----2-2-----0-0---0-------2---2-----2---0---0-----0-------|
D|---------0-----------------------------------------------------|
A|-----------------3-----------2-------------3-------------------|
E|-0-------------------------------------------------------------| 

  D/B           D/F#    D/B
e|---------0-----------------------------------------------------|
B|-----3-----3---------3-------0---------------------------------|
G|---2---2-----2-----2-------2-----------------------------------|
D|-----------------0-------0-------------------------------------|
A|-2---------------------2---------------------------------------|
E|---------------2-----------------------------------------------| 

Verse 2

Pre-Chorus:
   Em D/F# G   Em D/F# G   A7  C9 D/C
e|-3---3---3---3---3---3---0---3---2-----------------------------|
B|-3---3---3---3---3---3---2---3---3-----------------------------|
G|-0---2---0---0---2---0---0---0---0-----------------------------|
D|-2---0---0---2---0---0---2---2---0-----------------------------|
A|-2---0---2---2---0---2---0---3---3-----------------------------|
E|-0---2---3---0---2---3-----------------------------------------| 

Chorus:
   G  D/F# Em  C9  G  D/F# Em  C9
e|-3---3---3---3---3---3---3---3---------------------------------|
B|-3---3---3---3---3---3---3---3---------------------------------|
G|-0---2---0---0---0---2---0---0---------------------------------|
D|-0---0---2---2---0---0---2---2---------------------------------|
A|-2---0---2---3---2---0---2---3---------------------------------|
E|-3---2---0-------3---2---0-------------------------------------| 

Verse 3

Verse 4

Pre-Chorus

Chorus 4x

   C9 D/C  C9 D/C  G
e|-3---2---3---2---3---------------------------------------------|
B|-3---3---3---3---3---------------------------------------------|
G|-0---0---0---0---0---------------------------------------------|
D|-2---0---2---0---0---------------------------------------------|
A|-3---3---3---3---2---------------------------------------------|
E|-----------------3---------------------------------------------| 

| /  slide up
| \  slide down
| h  hammer-on
| p  pull-off
| ~  vibrato
| +  harmonic
| x  Mute note
comments
We did not receive enough feedback on this tab! Please rate:
print report bad tab
1 2 3 4 5
I want to post or [tab]
guest
You may want to rate the tab now too:
select rating
Please do not post tabs as comments. Select "correction" instead!