Oops, an error
Loading. Please wait.

Majesty Tab

version 1
version 1

Whole song

42,101 views 15 this week
5 commentsread comments
1 2 3 4 5
worth learning
x 6
add to favorites
launch autoscroll
font size
0
reset
how to read this tab
guitar tuner
Autoscroll
slow
fast
+/-
esc
set tempo
stop
Help us to improve Ultimate-Guitar.com Take our survey!
×
Acoustic Tab for Majesty by Delirious
Tabbed by Jon Dickson


Intro

e|-----------1--------------2---|----------0-------------0----------|
B|---------0---0----------3---2-|--------1---1---------1---1--------|
G|-------0--------------4-------|------0-------------0--------------|   x2
D|-----2--------------4---------|----2-------------2----------------|
A|-2--------------2-------------|-3-------------3-------------------|
E|------------------------------|-----------------------------------|

Varse 1 (Same tab for all verses)

e|-----------1--------------2---|----------0-------------0----|
B|---------0---0----------3---2-|--------1---1---------1---1--|
G|-------0--------------4-------|------0-------------0--------|
D|-----2--------------4---------|----2-------------2----------|
A|-2--------------2-------------|-3-------------3-------------|
E|------------------------------|-----------------------------|
   Here               I             Am

e|--------2-----------2----|----------0-------------0---|
B|-------------------------|--------1---1---------1---1-|
G|-----------0-----------0-|------0-------------0-------|
D|----0------------0-------|----2-------------2---------|
A|-------------------------|-3-------------3------------|
E|-2------------2----------|----------------------------|
  Humbled by your Majesty

e|--------2-----------2----|----------2-------------2---|
B|-------------------------|--------3---3---------3---3-|
G|-----------0-----------0-|------2-------------4-------|
D|----0------------0-------|----0-------------4---------|
A|-------------------------|-0-------------2------------|
E|-2------------2----------|----------------------------|
  Covered by your grace so free

e|-----------1--------------2---|----------0-------------0----|
B|---------0---0----------3---2-|--------1---1---------1---1--|
G|-------0--------------4-------|------0-------------0--------|
D|-----2--------------4---------|----2-------------2----------|
A|-2--------------2-------------|-3-------------3-------------|
E|------------------------------|-----------------------------|
   Here               I             Am

e|--------2-----------2----|----------0-------------0---|
B|-------------------------|--------1---1---------1---1-|
G|-----------0-----------0-|------0-------------0-------|
D|----0------------0-------|----2-------------2---------|
A|-------------------------|-3-------------3------------|
E|-2------------2----------|----------------------------|
  Knowing Im a sinfull Man

e|--------2-----------2----|---                      ---|
B|-------------------------|---                      ---|
G|-----------0-----------0-|---(Lightly strum D - Bm)---|
D|----0------------0-------|---                      ---|
A|-------------------------|---                      ---|
E|-2------------2----------|---                      ---|
 Covered by the blood of the Lamb

The rest is strummed...You can also add a bars break in between the 2nd verse and chorus!

Chords

Em   Bm  C     G                    C          G                        D Bm
Here I am      Humbled by your Majesty,        Covered by your grace so free
Em   Bm  C     G                    C          G
Here I am       Knowing I'm a sinful man       Covered by the blood of
    D  Bm
the Lamb

Em   D    G                           Em  D  G
Now I've found  the greatest love of all  is mine since you laid down your
A
life
                   C
The greatest sacrifice

G     D    Em    C
Majesty,   majesty
      G                            D           Em
Your grace has found me just as I am :   empty handed but alive in your
F
hands


Here I am  humbled by the love that you give   forgiven so I can forgive
Here I stand  Knowing that I'm your desire   Sanctified by Glory and Fire

Now I've found the greatest love of all is mine since you Laid down your life the 
sacrifice

Majesty, Majesty
Your grace has found me just as I am empty handed but alive in your hands
Majesty, Majesty
Forever I am changed by your love in the presence of your Majesty Majesty


Enjoy!
Suggest correction
comments
print report bad tab
5 comments total. Showing first comments.
0 reply
emhaslam 41 wrote on August 20 2006, 09:25 am

The chords just dont fit in!

0 reply
MystroJ 21 wrote on November 11 2006, 10:16 am

This is actually correct! Just needs to be capo'd! Contrary to the 1st comment they fit brilliantly if you no how to play it! Brilliant tab

0 reply
JesusFreak72 10 wrote on April 10 2008, 11:00 pm

no capo position works, this tab is terrible even with the right chords this pattern doesn't work (too many notes) you've only scratched the surface of this song and its a simple song if you listen to the cd its not hard to work out.

guest
You may want to rate the tab now too:
select rating
Wanna post a correction for this tab? Suggest correction