Oops, an error
Loading. Please wait.

My Glorious Tab

version 3
version 3

Solo

Whole song

Interactive

5,519 views 6 this week
4 commentsread comments
1 2 3 4 5
accurate
x 7
add to favorites
launch autoscroll
font size
0
reset
how to read this tab
guitar tuner
Tab Pro tools
  • play this tab
  • loop segment
  • change instrument
  • show fretboard
  • metronome
Autoscroll
slow
fast
+/-
esc
set tempo
stop
Contributor
                                -----Delirious-----
                                ----My Glorious----

This song is such a sweet song to play...and to listen to.......
Away we go........

Tabbed by mucho-mum

| /  slide up
| \  slide down
| h  hammer-on
| p  pull-off
| ~  vibrato
| +  harmonic
| x  Mute note

Intro:

E--------------------x-x-x-x-x-x-x-x-|
B--------------------x-x-x-x-x-x-x-x-|
G-(SLIDE)---4--4-2-2-x-x-x-x-x-x-x-x-|   X 2
D-(SLIDE)---4--4-2-2-x-x-x-x-x-x-x-x-|
A-(SLIDE)---4--4-2-2-x-x-x-x-x-x-x-x-|
E-(SLIDE)---0h-2-----x-x-x-x-x-x-x-x-|

E--------------------------------------|
B--------------------------------------|
G--7-7-7-7-7-----7-6--------4-4-4------|
D--7-7-7-7-7----------------4-4-4------|
A--5-5-5-5-5-----5-4---0h-2-2-2-2-0h-2-|
E--------------------------------------|

And repeat all that twice.....

Verse: Basically playing the intro but very...VERY faint....

Pre-Chorus:

E--------------------------------------------------------------|
B--------------------------------------------------------------|
G--7-7-7-7-7--7--7-----------------------4-4-4-4-4--4--4-4-4---|
D--7-7-7-7-7--7--7---7-7-7-7-7--7--7-----4-4-4-4-4--4--4-4-4---|
A--5-5-5-5-5--5--5---7-7-7-7-7--7--7-----2-2-2-2-2--2--2-2-2---|
E--------------------5-5-5-5-5--5--5---------------------------|

Chorus:

E--------------------------------------------------------------------|
B----------------------9--9--9--9--9--9--9--9------------------------|
G----------------------11-11-11-11-11-11-11-11-----9-9-9-9-9-9-9-9---|
D---7-7-7-7-7-7-7-7----11-11-11-11-11-11-11-11-----9-9-9-9-9-9-9-9---|
A---7-7-7-7-7-7-7-7----9--9--9--9--9--9--9--9------7-7-7-7-7-7-7-7---|
E---5-5-5-5-5-5-5-5--------------------------------0-0-0-0-0-0-0-0---|

E-------------------|
B-------------------|
G-------------------|
D---7-7-7-7-7-7-7-7-|  Then straight back into the intro..
A---7-7-7-7-7-7-7-7-|
E---5-5-5-5-5-5-5-5-|

(SO the order of this next part of the song as shown)

Intro

Verse

Pre-Chorus

Chorus

Post Chorus:
(This is only played after the 2nd Chorus)

E--------------------------------------|
B--------------------------------------|
G---7-7-7-7-7-7-7-7----9-9-9-9-9-9-9-9-|
D---7-7-7-7-7-7-7-7----9-9-9-9-9-9-9-9-| Repeat that as many times as u need
A---5-5-5-5-5-5-5-5----7-7-7-7-7-7-7-7-| to.......
E--------------------------------------|


SOLO:

E--------------9------7---12--12-12p-10-9p-7--5p-4-----|
B--10-10-10\5----5-------------------------------------|
G------------------------------------------------------|
D------------------------------------------------------|
A------------------------------------------------------|
E------------------------------------------------------|


E|-----5-5-5-----5--------7-5---12-12h-1414-14\12/16------|
B|-5----------5----5-----5--------------------------------|
G|--------------------------------------------------------|
D|--------------------------------------------------------|
A|--------------------------------------------------------|
E|--------------------------------------------------------|


E--------------------------------------9-----------9-------------------|
B---10-9-7------10-9-7---7-9-10-12-10---10-12---10---10---12-10-9------|
G-----------9----------9-----------------------------------------9-----|
D----------------------------------------------------------------------|
A----------------------------------------------------------------------|
E----------------------------------------------------------------------|


E--12(let ring)------14-12-17-16---19-21-21-21-22--21-17^^-------|
B----------------------------------------------------------------|
G----------------------------------------------------------------|
D----------------------------------------------------------------|
A----------------------------------------------------------------|
E----------------------------------------------------------------|

Then back into the Post-Chorus
And then it slowly fades out.....
As IT's Fading out....you here is great guitar piece like this:

E-----------------------------------
B-----------------------------------
G-14--13--10--8------14--13--10--13- (Repeat heaps)
D-----------------------------------
A-----------------------------------
E-----------------------------------





OKAY! Thanks for lookin' at his tab and I hope Its helped it heaps!

Tabbed By: mucho-mum
Date: 29th May Monday 2007 2:48PM
comments
print report bad tab
4 comments total. Showing first comments.
0 reply
jimbopo wrote on March 13 2008, 12:03 am

All parts are here and Wow you even tabbed the solo! I know a lot of people say it's pointless to do it but I think it adds to the sound and carries the melody. When improvizing solos it helps to go by particular keys that coincide. nicely done. 5*

0 reply
Digitech250 wrote on November 4 2008, 09:03 pm

the solo is way off. as is the intro...

0 reply
pinesylvanray wrote on December 22 2014, 12:17 pm

Lack of accuracy. The solo is terribly incorrect. The pre-chorus and the chorus are played using power chords played as arpeggios. The intro is off as well.

I want to post or [tab]
guest
You may want to rate the tab now too:
select rating
Please do not post tabs as comments. Select "correction" instead!