Oops, an error
Loading. Please wait.

Obsession Tab

version 1
version 1

Whole song

3,010 views 1 this week
1 commentread comment
1 2 3 4 5
1 last vote to show rating
add to favorites
launch autoscroll
font size
0
reset
how to read this tab
guitar tuner
Autoscroll
slow
fast
+/-
esc
set tempo
stop
Help us to improve Ultimate-Guitar.com Take our survey!
×
Difficulty
intermediate
-----------------------------------------------------------------------------
                             Obsession - Delirious?
-----------------------------------------------------------------------------
Nate

Tuning: Standard

Verses
e|----------------------------------------------------------------------------|
B|---------------3----------------3---------------3--------------3------------|
G|-----------0----------------0---------------0--------------0----------------|
D|-------4----------------2---------------0--------------2--------------------|
A|---2----------------0-------------------------------------------------------|
E|------------------------------------3--------------0------------------------|
Chorus
e|---------------------------------------------------------------------------|
B|---------------------------------------2-----------------------------------|
G|---------------4-------------------2-------2-------------------3-----------|
D|-----------5-------5-----------2---------------2-----------4-------4-------|
A|-------5---------------5---0---------------------------4---------------4---|
E|---3-----------------------------------------------2-----------------------|


| /  slide up
| \  slide down
| h  hammer-on
| p  pull-off
| ~  vibrato
| +  harmonic
| x  Mute note
=============================================================================
Suggest correction
Give kudos to tab author, rate the tab!
1 2 3 4 5
comments
print report bad tab
1 comment total.
0 reply
pinesylvanray 738 Dec 22, 2014 12:29 PM

You're missing part of the arpeggios, but what you have is correct.

guest
You may want to rate the tab now too:
select rating
Wanna post a correction for this tab? Suggest correction