Oops, an error
Loading. Please wait.

Obsession Tab

version 2
version 2

Whole song

2,636 views 3 this week
1 commentread comment
1 2 3 4 5
2 more votes to show rating
add to favorites
launch autoscroll
font size
0
reset
how to read this tab
guitar tuner
Autoscroll
slow
fast
+/-
esc
set tempo
stop
Help us to improve Ultimate-Guitar.com Take our survey!
×
G-MAN: This is my first tab so, here it goes. :)
(For the "Solo", I use an E-bow but you can also pick it.)
You can play this with a light overdrive, a little delay, and maybe some chorus effects.

Verses:
E|-------------------------------------------------------------------------|
B|---------------3----------------3---------------3--------------3---------|
G|-----------0----------------0---------------0--------------0-------------|
D|------4----------------2---------------0--------------2------------------|
A|---2----------------0----------------------------------------------------|
E|------------------------------------3--------------0---------------------|
(Repeat as many times as necessary.)

Chorus: 
The chords for the chorus are G, A, and D. 
(Repeat as many times as necessary.)

For an "interlude"
E|------------------------------------|
B|----------------------11------------|
G|--13---13---13---11-------13--------|
D|------------------------------------|
A|------------------------------------|
E|------------------------------------|
(X2)

"Solo" (Picking)
E|------------------------------------|
B|------------------------------------|
G|-12-12-12-11---9-7-6-7-9------------|
D|------------------------------------|
A|------------------------------------|
E|------------------------------------|

E|------------------------------------|
B|------------------------------------|
G|-12-12-12-11---9--2-4---------------|
D|------------------------------------|
A|------------------------------------|
E|------------------------------------|

E|------------------------------------|
B|------------------------------------|
G|-12-12-12-11--9-7-6-9--7------------|
D|------------------------------------|
A|------------------------------------|
E|------------------------------------|

I hope that this tab is helpful. ;)
Suggest correction
Give kudos to tab author, rate the tab!
1 2 3 4 5
comments
print report bad tab
1 comment total.
0 reply
pinesylvanray 738 Dec 22, 2014 12:32 PM

During the arpeggios, add in a little triplet at the end, like so:


e|-0-----
B|---3---
G|-----0-
D|-------
A|-------
E|-------


Good job on the rest of it.

guest
You may want to rate the tab now too:
select rating
Wanna post a correction for this tab? Suggest correction