Oops, an error
Loading. Please wait.

Dueling Banjos Bass Tab

12,397 views 39 this week
no commentswrite comment
1 2 3 4 5
excellent!
x 5
add to favorites
launch autoscroll
font size
0
reset
guitar tuner
Autoscroll
slow
fast
+/-
esc
set tempo
stop
Help us to improve Ultimate-Guitar.com Take our survey!
×
Standard 4-string bass tuning

These chords may not be correct. It sounded right. Feel free to notify me of changes at 
cactihair@yahoo.com

|-----9-----9-----9-----11----9----------------------------|
|-----11----11----11----12----11---------------------------|
|----------------------------------------------------------|
|----------------------------------------------------------|




|--6--7--9--6--7-----6------------------------|
|-----------------9-----7--9------------------|
|---------------------------------------------|
|---------------------------------------------|




|--------------6-----6---------------------|
|-----7--7--9-----7-----9------------------|
|--7---------------------------------------|
|------------------------------------------|
Suggest correction
comments
print report bad tab
guest
You may want to rate the tab now too:
select rating
Please do not post tabs as comments. Select "correction" instead!