Oops, an error
Loading. Please wait.

Dueling Banjos tab

version 1
version 1
861,216 views 1,737 this week
17 commentsread comments
1 2 3 4 5
x 289
add to favorites
×
Save as Personal and add changes to this tab that will be seen only by you. Learn more ›
×
You can save this tab as Personal to edit and correct it or add notes. All changes will be seen only by you. Learn more »
launch autoscroll
font size
0
reset
how to read this tab
guitar tuner
backing track
0:00
0:00
edit
Autoscroll
slow
fast
+/-
esc
set tempo
stop
Title: Dueling Banjos
Artist: Deliverance Theme

Tabbed by: Gary
Tuning: Standard (E A D G B E)


E|-------------------------------------------------------------------||
B|-----------------------0-1-3-0-1---0-------------------------------||
G|-4-5-7-4-5---4-------------------2---0-2--------------4---4--------||
D|-----------7---5-7-----------------------------5-5-7----5---7------||
A|-------------------------------------------5-----------------------||
E|-------------------------------------------------------------------||

E|---------2---2-----||
B|---3-3-5---3---5---||
G|-2-----------------||
D|-------------------||
A|-------------------||
E|-------------------||

E|-------------------------------------------------------------------||
B|-------------------------------0-1-3-1-0---------------------------||
G|-----------------------0-0-0-2---------------------------0---------||
D|-------------0-------------------------------------0-2-3---3-2-----||
A|-------0-2-3---3-2---------------------------3-3-3-----------------||
E|-3-3-3-------------------------------------------------------------||

E|---------0-1-3-1-0-------------------------------------------------||
B|-1-1-1-3---------------------------------------------0-1-3-1-0-----||
G|---------------------------------------------0-0-0-2---------------||
D|-----------------------------------0-------------------------------||
A|-----------------------------0-2-3---3-2---------------------------||
E|-----------------------3-3-3---------------------------------------||

E|-----------------------------0-2-3-5-3-2---||
B|-----------0-1-3-1-0---3-3-3---------------||
G|-0-0-0-2-----------------------------------||
D|-------------------------------------------||
A|-------------------------------------------||
E|-------------------------------------------||

E|---------------3-----------------------------3---------------------||
B|-------1-0-------3-3-5-3-----------1-0------3----5-3---------------||
G|---0---0-0-----------5-4-------0---0-0-----4-----5-4---------------||
D|-0---0-2-0-------------------0---0-2-0-----------------------------||
A|-------------------------------------------------------------------||
E|-------------------------------------------------------------------||

E|-3-------------3-------------3-------------3-----------------------||
B|-0-0-0-1-0-----3-3-3-5-3-----0-0-0-1-0-----3-3-3-5-3---------------||
G|-0-0-0-0-0-----4-4-4-5-4-----0-0-0-0-0-----4-4-4-5-4---------------||
D|-0-0-0-2-0-------------------0-0-0-2-0-----------------------------||
A|-------------------------------------------------------------------||
E|-------------------------------------------------------------------||

            
            
Suggest correction
Creating personal tab
Creating personal tab
You can edit any tab online and save it as your Personal.

You can edit, replace or remove any tab part or add personal notes – all changes will be seen only by you.

Personal tabs can be accessed anytime from any device, even offline.
Learn more »
comments
print report bad tab
17 comments total. Showing first comments.
+4 reply
Bill Hicks024 10 Dec 29, 2006 06:49 AM

Awesome dude!!! Thank you for taking the time to put this up. I waited that whole damn movie for more banjo playing and I was severely disappointed when their wasnt anymore. Still gotta love this part though.

+10 reply
SuiGeneris25 10 Jul 24, 2007 07:59 PM

5th line should be:

E|-----------------------------0-2-3-5-3-2---||
B|---------0-1-3-1-0-----3-3-3---------------||
G|-0-0-0-2-----------------------------------||
D|-------------------------------------------||
A|-------------------------------------------||
E|-------------------------------------------||

+1 reply
harrisabd 10 Mar 05, 2008 10:23 PM

exellent
sounds great on my dot

guest
Wanna post a correction for this tab? Suggest correction