Oops, an error
Loading. Please wait.

Dueling Banjos ukulele

6,247 views 246 this week
no commentswrite comment
1 2 3 4 5
x 5
add to favorites
×
Save as Personal and add changes to this tab that will be seen only by you. Learn more ›
×
You can save this tab as Personal to edit and correct it or add notes. All changes will be seen only by you. Learn more »
launch autoscroll
font size
0
reset
transpose
0
reset
display chords
guitar tuner
backing track
0:00
0:00
edit
Autoscroll
slow
fast
+/-
esc
set tempo
stop
Author
Difficulty
About this tab version
Dueling Ukulele's (arranged for two standard ukulele's), Ending TBC. Was this info helpful? Yes No
Strumming
There is no strumming pattern for this song yet. and get +5 IQ
I recently learnt this on both the Guitar and the Banjo and figured it would work with Ukulele's
And it certainly does, providing one of the Ukulele's is tuned with linear tuning (low G) and the other
with standard re-entrant tuning (high G)

DUELING UKULELE'S

Uke 1 - Standard re-entrant (g C E A)
Uke 2 - Standard linear     (G C E A)

Uke 1 plays the part of the banjo (if you own a Banjolele, even better) 
Uke 2 plays the part of the Guitar


Uke 1
A|-----------------2-2-2---3---2-------------------2-2-2---3---2---|
E|-----------------3-3-3---0---3-------------------3-3-3---0---3---|
C|-----------------2-2-2---0---2-------------------2-2-2---0---2---|
g|-----------------0-0-0---0---0-------------------0-0-0---0---0---|
Uke 2
A|-2-2-2---3---2-------------------2-2-2---3---2-------------------|
E|-3-3-3---0---3-------------------3-3-3---0---3-------------------|
C|-2-2-2---0---2-------------------2-2-2---0---2-------------------|
G|-0-0-0---0---0-------------------0-0-0---0---0-------------------|

Uke 1
A|---------------------------------2h3-5---2---3---0---2-------0---|
E|---------------------------------------------------------3-------|
C|-----------------------------------------------------------------|
g|-----------------------------------------------------------------|
Uke 2                                                                    X2
A|-----------------------------------------------------------------|
E|-----------------------------------------------------------------|
C|-----2-------0---------------------------------------------------|
G|-4h5-----4-------2---4---0---2-----------------------------------|

Uke 1
A|---------------------------------------------0---2-------2---0---|
E|-------------------------------------3---3-----------3-----------|
C|---------------------------------2-------------------------------|
g|-----------------------------------------------------------------|
Uke 2                                                                    
A|-----------------------------------------------------------------|
E|-----------------------------------------------------------------|
C|-----------------------------------------------------------------|
G|-----0---0---2---4---0---4---2-----------------------------------|

Uke 1
A|---------------------------------------------2---3---5---3---2---|
E|---------------------------------3-3-3---5-----------------------|
C|-----------------------------------------------------------------|
g|-----------------------------------------------------------------|
Uke 2                                                                    X2
A|-----------------------------------------------------------------|
E|-----------------------------------------------------------------|
C|-----------------0---2---0---------------------------------------|
G|-0-0-0---2---4---------------4-----------------------------------|

Uke 1
A|---------------------------------------------7---8---10--8---7---|
E|---------------------------------8-8-8---10----------------------|
C|-----------------------------------------------------------------|
g|-----------------------------------------------------------------|
Uke 2                                                                    
A|-----------------------------------------------------------------|
E|-------------0---1---3---1---0-----------------------------------|
C|-0-0-0---2-------------------------------------------------------|
G|-----------------------------------------------------------------|

Uke 1
A|---------------------------------------------2---3---5---3---2---|
E|---------------------------------3-3-3---5-----------------------|
C|-----------------------------------------------------------------|
g|-----------------------------------------------------------------|
Uke 2                                                                   
A|-----------------------------------------------------------------|
E|-----------------------------------------------------------------|
C|-----------------0---2---0---------------------------------------|
G|-0-0-0---2---4---------------4-----------------------------------|

Uke 1
A|------------------------------------------------9---10--12--10--9---|
E|---------------------------------10-10-10---12----------------------|
C|--------------------------------------------------------------------|
g|--------------------------------------------------------------------|
Uke 2                                                                    
A|---------------------0-------------------------------------------|
E|---------0---2---3-------3---2-----------------------------------|
C|-2-2-2-----------------------------------------------------------|
G|-----------------------------------------------------------------|

Uke 1
A|-----------------2-2-2---3---2-------------------2-2-2---3---2---|
E|-----------------3-3-3---0---3-------------------3-3-3---0---3---|
C|-----------------2-2-2---0---2-------------------2-2-2---0---2---|
g|-----------------0-0-0---0---0-------------------0-0-0---0---0---|
Uke 2
A|-2-2-2---3---2-------------------2-2-2---3---2-------------------|
E|-3-3-3---0---3-------------------3-3-3---0---3-------------------|
C|-2-2-2---0---2-------------------2-2-2---0---2-------------------|
G|-0-0-0---0---0-------------------0-0-0---0---0-------------------|

FASTER!

Uke 1
A|---------------------------------2h3-5---2---3---0---2-------0---|
E|---------------------------------------------------------3-------|
C|-----------------------------------------------------------------|
g|-----------------------------------------------------------------|
Uke 2                                                                   
A|-----------------------------------------------------------------|
E|-----------------------------------------------------------------|
C|-----2-------0---------------------------------------------------|
G|-4h5-----4-------2---4---0---2-----------------------------------|

Uke 1
A|-2h3-5---2---3---0---2-------0---------------0---2-------2---0---2-|
E|-------------------------3-----------3---3-----------3-------------|
C|---------------------------------2---------------------------------|
g|-------------------------------------------------------------------|
Uke 2                                                                   
A|-------------------------------------------------------------------|
E|-------------------------------------------------------------------|
C|-----2-------0-------------------2---------------------------------|
G|-4h5-----4-------2---4---0---2-------0---0-0-2---4---0---4---2---4-|

Uke 1
A|---3-------3-------3-------3-------2-------2-------2-------2-----|
E|-------0-------0-------0-------0-------3-------3-------3-------3-|
C|-----0-------0-------0-------0-------2-------2-------2-------2---|
g|-0-------0-------0-------0-------0-------0-------0-------0-------|
Uke 2                                                                   
A|-3---3---3-3-3-3-3---3---3-3-3-3-2---2---2-2-2-2-2---2---2-2-2-2-|
E|-3---3---3-3-3-3-3---3---3-3-3-3-3---3---3-3-3-3-3---3---3-3-3-3-|
C|-4---4---4-4-4-4-4---4---4-4-4-4-2---2---2-2-2-2-2---2---2-2-2-2-|
G|-5---5---5-5-5-5-5---5---5-5-5-5-4---4---4-4-4-4-4---4---4-4-4-4-|

Uke 1
A|---3-------3-------3-------3-------2-------2-------2-------2-----|
E|-------0-------0-------0-------0-------3-------3-------1-------1-|
C|-----0-------0-------0-------0-------2-------2-------2-------2---|
g|-0-------0-------0-------0-------0-------0-------0-------0-------|
Uke 2                                                                   
A|-5---5---5-5-5-5-5---5---5-5-5-5-2---2---2-2-2-2-2---2-2---2---2-|
E|-2---2---2-2-2-2-2---2---2-2-2-2-3---3---3-3-3-3-3---3-3---3---3-|
C|-2---2---2-2-2-2-2---2---2-2-2-2-2---2---2-2-2-2-2---2-2---2---2-|
G|-2---2---2-2-2-2-2---2---2-2-2-2-4---4---4-4-4-4-4---4-4---2---4-|

Uke 1
A|---3-------3-------3-------3-------2-------2-------2-------2-----|
E|-------0-------0-------0-------0-------3-------3-------3-------3-|
C|-----0-------0-------0-------0-------2-------2-------2-------2---|
g|-0-------0-------0-------0-------0-------0-------0-------0-------|
Uke 2                                                                   
A|-3---3---3-3-3-3-3---3---3-3-3-3-2---2---2-2-2-2-2---2---2-2-2-2-|
E|-3---3---3-3-3-3-3---3---3-3-3-3-3---3---3-3-3-3-3---3---3-3-3-3-|
C|-4---4---4-4-4-4-4---4---4-4-4-4-2---2---2-2-2-2-2---2---2-2-2-2-|
G|-5---5---5-5-5-5-5---5---5-5-5-5-4---4---4-4-4-4-4---4---4-4-4-4-|

Uke 1
A|---3-------3-------3-------3-------2-------2-------2-------2-----|
E|-------0-------0-------0-------0-------3-------3-------3-------3-|
C|-----0-------0-------0-------0-------2-------2-------2-------2---|
g|-0-------0-------0-------0-------0-------0-------0-------0-------|
Uke 2                                                                   
A|-5---5---5-5-5-5-5---5---5-5-5-5-2---2---2-2-2-2-2---2-2---2---2-|
E|-2---2---2-2-2-2-2---2---2-2-2-2-3---3---3-3-3-3-3---3-3---3---3-|
C|-2---2---2-2-2-2-2---2---2-2-2-2-2---2---2-2-2-2-2---2-2---2---2-|
G|-2---2---2-2-2-2-2---2---2-2-2-2-4---4---4-4-4-4-4---4-4---2---4-|

Uke 1
A|---------------------------------------------2---3---5---3---2---|
E|---------------------------------3-3-3---5-----------------------|
C|-----------------------------------------------------------------|
g|-----------------------------------------------------------------|
Uke 2                                                                    X2
A|-----------------------------------------------------------------|
E|-----------------------------------------------------------------|
C|-----------------0---2---0---------------------------------------|
G|-0-0-0---2---4---------------4-----------------------------------|

Uke 1
A|---------------------------------------------7---8---10--8---7---|
E|---------------------------------8-8-8---10----------------------|
C|-----------------------------------------------------------------|
g|-----------------------------------------------------------------|
Uke 2                                                                    
A|-----------------------------------------------------------------|
E|-------------0---1---3---1---0-----------------------------------|
C|-0-0-0---2-------------------------------------------------------|
G|-----------------------------------------------------------------|

Uke 1
A|---------------------------------------------2---3---5---3---2---|
E|---------------------------------3-3-3---5-----------------------|
C|-----------------------------------------------------------------|
g|-----------------------------------------------------------------|
Uke 2                                                                   
A|-----------------------------------------------------------------|
E|-----------------------------------------------------------------|
C|-----------------0---2---0---------------------------------------|
G|-0-0-0---2---4---------------4-----------------------------------|

Uke 1
A|------------------------------------------------9---10--12--10--9---|
E|---------------------------------10-10-10---12----------------------|
C|--------------------------------------------------------------------|
g|--------------------------------------------------------------------|
Uke 2                                                                    
A|---------------------0-------------------------------------------|
E|---------0---2---3-------3---2-----------------------------------|
C|-2-2-2-----------------------------------------------------------|
G|-----------------------------------------------------------------|

Uke 1
A|-----------------2-2-2---3---2-------------------2-2-2---3---2---|
E|-----------------3-3-3---0---3-------------------3-3-3---0---3---|
C|-----------------2-2-2---0---2-------------------2-2-2---0---2---|
g|-----------------0-0-0---0---0-------------------0-0-0---0---0---|
Uke 2
A|-2-2-2---3---2-------------------2-2-2---3---2-------------------|
E|-3-3-3---0---3-------------------3-3-3---0---3-------------------|
C|-2-2-2---0---2-------------------2-2-2---0---2-------------------|
G|-0-0-0---0---0-------------------0-0-0---0---0-------------------|

FASTER!

Uke 1
A|---------------------------------2h3-5---2---3---0---2-------0---|
E|---------------------------------------------------------3-------|
C|-----------------------------------------------------------------|
g|-----------------------------------------------------------------|
Uke 2                                                                   
A|-----------------------------------------------------------------|
E|-----------------------------------------------------------------|
C|-----2-------0---------------------------------------------------|
G|-4h5-----4-------2---4---0---2-----------------------------------|

Uke 1
A|-2h3-5---2---3---0---2-------0---------------0---2-------2---0---2-|
E|-------------------------3-----------3---3-----------3-------------|
C|---------------------------------2---------------------------------|
g|-------------------------------------------------------------------|
Uke 2                                                                   
A|-------------------------------------------------------------------|
E|-------------------------------------------------------------------|
C|-----2-------0-------------------2---------------------------------|
G|-4h5-----4-------2---4---0---2-------0---0-0-2---4---0---4---2---4-|

Uke 1
A|---3-------3-------3-------3-------2-------2-------2-------2-----|
E|-------0-------0-------0-------0-------3-------3-------3-------3-|
C|-----0-------0-------0-------0-------2-------2-------2-------2---|
g|-0-------0-------0-------0-------0-------0-------0-------0-------|
Uke 2                                                                   
A|-3---3---3-3-3-3-3---3---3-3-3-3-2---2---2-2-2-2-2---2---2-2-2-2-|
E|-3---3---3-3-3-3-3---3---3-3-3-3-3---3---3-3-3-3-3---3---3-3-3-3-|
C|-4---4---4-4-4-4-4---4---4-4-4-4-2---2---2-2-2-2-2---2---2-2-2-2-|
G|-5---5---5-5-5-5-5---5---5-5-5-5-4---4---4-4-4-4-4---4---4-4-4-4-|

Uke 1
A|---3-------3-------3-------3-------2-------2-------2-------2-----|
E|-------0-------0-------0-------0-------3-------3-------1-------1-|
C|-----0-------0-------0-------0-------2-------2-------2-------2---|
g|-0-------0-------0-------0-------0-------0-------0-------0-------|
Uke 2                                                                   
A|-5---5---5-5-5-5-5---5---5-5-5-5-2---2---2-2-2-2-2---2-2---2---2-|
E|-2---2---2-2-2-2-2---2---2-2-2-2-3---3---3-3-3-3-3---3-3---3---3-|
C|-2---2---2-2-2-2-2---2---2-2-2-2-2---2---2-2-2-2-2---2-2---2---2-|
G|-2---2---2-2-2-2-2---2---2-2-2-2-4---4---4-4-4-4-4---4-4---2---4-|

Uke 1
A|---3-------3-------3-------3-------2-------2-------2-------2-----|
E|-------0-------0-------0-------0-------3-------3-------3-------3-|
C|-----0-------0-------0-------0-------2-------2-------2-------2---|
g|-0-------0-------0-------0-------0-------0-------0-------0-------|
Uke 2                                                                   
A|-3---3---3-3-3-3-3---3---3-3-3-3-2---2---2-2-2-2-2---2---2-2-2-2-|
E|-3---3---3-3-3-3-3---3---3-3-3-3-3---3---3-3-3-3-3---3---3-3-3-3-|
C|-4---4---4-4-4-4-4---4---4-4-4-4-2---2---2-2-2-2-2---2---2-2-2-2-|
G|-5---5---5-5-5-5-5---5---5-5-5-5-4---4---4-4-4-4-4---4---4-4-4-4-|

Uke 1
A|---3-------3-------3-------3-------2-------2-------2-------2-----|
E|-------0-------0-------0-------0-------3-------3-------3-------3-|
C|-----0-------0-------0-------0-------2-------2-------2-------2---|
g|-0-------0-------0-------0-------0-------0-------0-------0-------|
Uke 2                                                                   
A|-5---5---5-5-5-5-5---5---5-5-5-5-2---2---2-2-2-2-2---2-2---2---2-|
E|-2---2---2-2-2-2-2---2---2-2-2-2-3---3---3-3-3-3-3---3-3---3---3-|
C|-2---2---2-2-2-2-2---2---2-2-2-2-2---2---2-2-2-2-2---2-2---2---2-|
G|-2---2---2-2-2-2-2---2---2-2-2-2-4---4---4-4-4-4-4---4-4---2---4-|


Not really sure how to end it, just keep repeating the various parts faster and faster until someone loses!

            
            
Suggest correction
Creating personal tab
Creating personal tab
You can edit any tab online and save it as your Personal.

You can edit, replace or remove any tab part or add personal notes – all changes will be seen only by you.

Personal tabs can be accessed anytime from any device, even offline.
Learn more »
comments
print report bad tab
guest
You may want to rate the tab now too:
select rating
Wanna post a correction for this tab? Suggest correction