Oops, an error
Loading. Please wait.

Dueling Banjos Tab

version 2
version 2
47,309 views 66 this week
7 commentsread comments
1 2 3 4 5
x 12
add to favorites
launch autoscroll
font size
0
reset
how to read this tab
guitar tuner
Autoscroll
slow
fast
+/-
esc
set tempo
stop
Help us to improve Ultimate-Guitar.com Take our survey!
×
Author
Difficulty
novice
dont worry everyone i am 100% sure that this is 100% perfect


|-------------------|-------------------|-------------------|
|-0-1-3-0-1---0-----|-0h1h3-0-1---0-----|-0h1h3-0-1---0-----|
|-----------2---0-2-|-----------2---0-2-|-----------2---0-2-|
|-------------------|-------------------|-------------------|
|-------------------|-------------------|-------------------|
|-------------------|-------------------|-------------------|

|-----------------|--------------|-----------------------------|
|-----------------|--------------|-----------------------------|
|---0-0-2-4-0-4-2-|---0-0-2-4-0--|-0-0-2-4-5-4-2-0---------0-0-|
|-0---------------|-0-----------4|-----------------4-0-2-4-----|
|-----------------|--------------|-----------------------------|
|-----------------|--------------|-----------------------------|


|-------------------|------------------|------------------|-------------------|
|-------------------|------------------|------------------|-------------------|
|-------------------|------------------|-------------0----|-------------------|
|-------------0-----|-------------0----|-------0-2-3---3-2|--------------0----|
|-------0-2-3---3-2-|------0-2-3----3-2|3-3-3-------------|-------0-2-3---2-3-|
|-3-3-3-------------|-3-3-3------------|------------------|-3-3-3-------------|


|--------------------|--3-3-3-3-3--3-3-3-3-3--|
|--------------------|--0-0-0-0-0--0-0-0-0-0--|
|--------0-2-------2-|--0-0-0-0-0--0-0-0-0-0--|
|--2-2-2-----4-5-4-0-|--0-0-0-2-0--0-0-0-2-0--|
|--------------------|--2-2-2-3-2--2-2-2-3-2--|
|--------------------|--3-3-3---3--3-3-3---3--|



************************************

| h  Hammer-on

************************************
Suggest correction
comments
print report bad tab
7 comments total. Showing first comments.
0 reply
Pro_Rocker3 10 Jul 29, 2007 09:44 PM

u r right man i love u....u know what i mean

0 reply
silentscope1234 20 Aug 12, 2007 04:56 AM

Okay well i'm not sure where you were going with this, I suppose it was suppose to be a joke, as yankee doodle dandy was included randomly.

0 reply
guitarplayah831 10 Oct 29, 2007 07:11 PM

yeah i agree with silentscope cause that yankee doodle was really random... other than that it sounded pretty good.

guest
You may want to rate the tab now too:
select rating
Wanna post a correction for this tab? Suggest correction