Oops, an error
Loading. Please wait.

Dueling Banjos Tab

version 5
version 5
13,453 views 18 this week
no commentswrite comment
1 2 3 4 5
2 more votes to show rating
add to favorites
launch autoscroll
font size
0
reset
how to read this tab
guitar tuner
Autoscroll
slow
fast
+/-
esc
set tempo
stop
Help us to improve Ultimate-Guitar.com Take our survey!
×
Author
Difficulty
Capo
intermediate
2nd fret
-------------------------------------------------------------------------------
                             Dueling Banjos - Deliverance
-------------------------------------------------------------------------------
Tabbed by: Donal McGuckin
Email:donalmcguckin@hotmail.com

#This tab not exactly the same as the version from deliverence, it is 
tabbed from (what I think is) the original version of duelling banjos.

Tuning: Capo 2nd Fret
                        
                        Banjo 
                (tabbed for guitar below)          Banjo
e|------------------------X--------------------------X-----------------------|
B|------------------------X--------------------------X-----------------------|
G|------------------------X--------------------------X-----------------------|
D|-------------0----------X---------------0----------X-----------------------|
A|-------0-2-3--3-2-------X---------0-2-3---3-2------X-----------------------|
E|-3-3-3------------------X---3-3-3------------------X-----------------------|
                        Banjo                      Banjo
e|------------------------X--------------------------X-----------------------|
B|------------------------X--------------------------X-----------------------|
G|-------------0----------X--------------------------X-----------------------|
D|-------0-2-3--3-2-------X--------------0-----------X-----------------------|
A|-3-3-3------------------X--------0-2-3----3-2------X-----------------------|
E|------------------------X---3-3-3------------------X-----------------------|
                        Banjo           Banjo           Banjo
e|------------------------X---3-3-3-3-3---X---3-3-3-3-3---X------------------|
B|------------------------X---3-3-3-3-3---X---3-3-3-3-3---X------------------|
G|-----------0-2-0--------X---0-0-0-0-0---X---0-0-0-0-0---X------------------|
D|-0-0-0-2-4-------4------X---0-0-0-2-0---X---0-0-0-2-0---X------------------|
A|------------------------X---2-2-2-3-2---X---2-2-2-3-2---X------------------|
E|------------------------X---3-3-3-0-3---X---3-3-3-0-3---X------------------|
                    Banjo                  Banjo
e|--------------------X----------------------X-------------------------------|
B|-0-1-3-0-1---0------X---0-1-3-0-1---0------X-------------------------------|
G|-----------2---0-2--X-------------2---0-2--X-------------------------------|
D|--------------------X----------------------X-------------------------------|
A|--------------------X----------------------X-------------------------------|
E|--------------------X----------------------X-------------------------------|
                         These are the chords played as background to banjo 
                                         C G D G C G D G
e|---------------------------------------0-3-2-3-0-3-2-3---------------------|
B|---------0---0------------0---0--------1-3-3-3-1-3-3-3---------------------|
G|---0-0-2---0---2----0-0-2---0----------0-0-2-0-0-0-3-0---------------------|
D|-0----------------0-------------2-0----2-0-0-0-2-0-0-0---------------------|
A|---------------------------------------3-2-x-2-3-2-x-2---------------------|
E|---------------------------------------3-3-x-3-3-3-x-3--------------------|

Repeat this entire section once more, using a faster tempo for the second run

-----------------------------------------------------------------------------

Banjo tab (Play using a hard pick close to the bridge)

 Guitar             Guitar               Guitar  
e|-X-------------------X--------------------X----------0-1-3-1-0-------------|
B|-X---------0-1-3-1-0-X----------0-1-3-1-0-X--1-1-1-3-----------------------|
G|-X-0-0-0-2-----------X--0-0-0-2-----------X--------------------------------|
D|-X-------------------X--------------------X--------------------------------|
A|-X-------------------X--------------------X--------------------------------|
E|-X-------------------X--------------------X--------------------------------
Guitar              Guitar               Guitar        Guitar
e|-X---------0-1-3-1-0-X--------0-2-3-5-3-2-X-------------X------------------|
B|-X-------2-----------X--3-3-3-------------X--3-3-3-5-3--X--3-3-3-5-3-------|
G|-X-0-0-0-------------X--------------------X--4-4-4-5-4--X--4-4-4-5-4-------|
D|-X-------------------X--------------------X-------------X------------------|
A|-X-------------------X--------------------X-------------X------------------|
E|-X-------------------X--------------------X-------------X------------------|




Suggest correction
Give kudos to tab author, rate the tab!
1 2 3 4 5
comments
print report bad tab
guest
You may want to rate the tab now too:
select rating
Wanna post a correction for this tab? Suggest correction