Oops, an error
Loading. Please wait.

Dueling Banjos Tab

version 6
version 6
5,620 views 9 this week
1 commentread comment
1 2 3 4 5
accurate
x 3
add to favorites
launch autoscroll
font size
0
reset
how to read this tab
guitar tuner
Autoscroll
slow
fast
+/-
esc
set tempo
stop
Help us to improve Ultimate-Guitar.com Take our survey!
×
Capo
2nd fret
  Band: Eral Scruggs
  Song: Dueling Banjos
  Tuning: EADGBe
  I sat for hours trying to figure this out and here it is Enjoy
  It is fairly easy.
  There is a capo on the 2nd fret
  This is the guitar only.
  |------------------5----5-5-5-5-5--|
  |-----0----------5------5-5-5-5-5--|
  |--0--0--------0--------0-0-0-0-0--|
  |--0--0------0----------0-0-0-4-0--|
  |----------4------------4-4-4-5-4--|
  |--------5--------------5-5-5---5--|


  |--5-5-5-5-5--5-5-5-5-5--5-5-5-5-5--------------------------------|
  |--5-5-5-5-5--5-5-5-5-5--5-5-5-5-5---0-3-5-0-3-1---0--------------|
  |--0-0-0-0-0--0-0-0-0-0--0-0-0-0-0---------------4---0-4----------|
  |--0-0-0-4-0--0-0-0-4-0--0-0-0-4-0--------------------------------|
  |--4-4-4-5-4--4-4-4-5-4--4-4-4-5-4--------------------------------|
  |--5-5-5---5--5-5-5---5--5-5-5---5--------------------------------|


  |----------------------------------------------------------------|
  |--0-3-5-0-3-1---0--------------0---0----------------------------|
  |--------------4---0-4----0-0-4---0---4--------------------------|
  |-----------------------0----------------------------0-----------|
  |----------------------------------------------0-4-5---5-4-------|
  |----------------------------------------5-5-5-------------------|


  |----------------------------------------------------------------|
  |----------------------------------------------------------------|
  |---------------------------------0------------------------------|
  |--------------0------------0-4-5---5-4--------------0-----------|
  |--------0-4-5---5-4--5-5-5--------------------0-4-5---5-4-------|
  |--5-5-5---------------------------------5-5-5-------------------|


  |---------------------5-5-5-5-5--5-5-5-5-5-------------------------------|
  |---------------------5-5-5-5-5--5-5-5-5-5--0-3-5-0-1---0----------------|
  |--------------0------0-0-0-0-0--0-0-0-0-0------------4---0--------------|
  |--------0-4-5---5-4--0-0-0-4-0--0-0-0-4-0-------------------------------|
  |--5-5-5--------------4-4-4-5-4--4-4-4-5-4-------------------------------|
  |---------------------5-5-5---5--5-5-5---5-------------------------------|


  |------------------------------------|
  |--0-3-5-0-1---0------------0---0----|
  |------------4---0----0-0-4---0---4--|
  |-------------------0----------------|
  |------------------------------------|
  |------------------------------------|


   We Pick Up The Tempo!!!!
  |-5-5-5-5-5-----5-5-5-5-5-5-5-5-5-5-5-5-5-5-5-----5-5-5-5-5-5-5-5--|
  |-5-5-5-5-5-----5-5-5-5-5-5-5-5-5-5-5-5-5-5-5-----5-5-5-5-5-5-5-5--|
  |-0-0-0-0-0-----0-0-0-0-0-0-0-0-0-0-0-0-0-0-0-----0-0-0-0-0-0-0-0--|
  |-0-0-0-0-0-----0-0-0-0-0-0-0-0-0-0-0-0-0-0-0-----0-0-0-0-0-0-0-0--|
  |-4-4-4-4-4-----4-4-4-4-4-4-4-4-4-4-4-4-4-4-4-----4-4-4-4-4-4-4-4--|
  |-5-5-5-5-5-4h5-5-5-5-5-5-5-5-5-5-5-5-5-5-5-5-4h5-5-5-5-5-5-5-5-5--|

  |-5-5-5-5-5-5-5-5-----5-5-5-5-5-5-5-5-5-5-5-5-5-5-5-5-5------|
  |-5-5-5-5-5-5-5-5-----5-5-5-5-5-5-5-5-5-5-5-5-5-5-5-5-5------|
  |-0-0-0-0-0-0-0-0-----0-0-0-0-0-0-0-0-0-0-0-0-0-0-0-0-0------|
  |-0-0-0-0-0-0-0-0-----0-0-0-0-0-0-0-0-0-0-0-0-0-0-0-0-0------|
  |-4-4-4-4-4-4-4-4-----4-4-4-4-4-4-4-4-4-4-4-4-4-4-4-4-4------|
  |-5-5-5-5-5-5-5-5-4h5-5-5-5-5-5-5-5-5-5-5-5-5-5-5-5-5-5-4h5--|


  |-------------------------------------------------------------|
  |-------------------------------------------------------------|
  |------------------------------------------------------0------|
  |--------------0-------------------0-------------0-4-5---5-4--|
  |--------0-4-5---5-4---------0-4-5---5-4---5-5-5--------------|
  |--5-5-5---------------5-5-5----------------------------------|


 |-----------------------------------------5-5-5-5-5--5-5-5-5-5--|
 |-----------------------------------------5-5-5-5-5--5-5-5-5-5--|
 |----------------------------------0------0-0-0-0-0--0-0-0-0-0--|
 |--------------0-------------0-4-5---5-4--0-0-0-0-0--0-0-0-0-0--|
 |--------0-4-5---5-4---5-5-5--------------4-4-4-5-4--4-4-4-5-4--|
 |--5-5-5----------------------------------5-5-5---5--5-5-5---5--|


|---------------------------------------------------------------|
|--0-3-5-0-3---0--------0-3-5-0-3---0------------------0---0----|
|------------4---0-4--------------4---0-4--------0-0-2---0---2--|
|----------------------------------------------0----------------|
|---------------------------------------------------------------|
|---------------------------------------------------------------|


|-5-5-5-5-5-5-5-5-----5-5-5-5-5-5-5-5-5-5-5-5-5-5-5-5-----5-5-5-5-5--|
|-5-5-5-5-5-5-5-5-----5-5-5-5-5-5-5-5-5-5-5-5-5-5-5-5-----5-5-5-5-5--|
|-0-0-0-0-0-0-0-0-----0-0-0-0-0-0-0-0-0-0-0-0-0-0-0-0-----0-0-0-0-0--|
|-0-0-0-0-0-0-0-0-----0-0-0-0-0-0-0-0-0-0-0-0-0-0-0-0-----0-0-0-0-0--|
|-4-4-4-4-4-4-4-4-----4-4-4-4-4-4-4-4-4-4-4-4-4-4-4-4-----4-4-4-4-4--|
|-5-5-5-5-5-5-5-5-4h5-5-5-5-5-5-5-5-5-5-5-5-5-5-5-5-5-4h5-5-5-5-5-5--|

|-5-5-5-5-5-5-5-5-5-5-5-5-----5-5-5-5-5-5-5-5-5-5-5-5-5-5-5-5-5--|
|-5-5-5-5-5-5-5-5-5-5-5-5-----5-5-5-5-5-5-5-5-5-5-5-5-5-5-5-5-5--|
|-0-0-0-0-0-0-0-0-0-0-0-0-----0-0-0-0-0-0-0-0-0-0-0-0-0-0-0-0-0--|
|-0-0-0-0-0-0-0-0-0-0-0-0-----0-0-0-0-0-0-0-0-0-0-0-0-0-0-0-0-0--|
|-4-4-4-4-4-4-4-4-4-4-4-4-----4-4-4-4-4-4-4-4-4-4-4-4-4-4-4-4-4--|
|-5-5-5-5-5-5-5-5-5-5-5-5-4h5-5-5-5-5-5-5-5-5-5-5-5-5-5-5-5-5-5--|

Then thir is a banjo solo at the end
Suggest correction
Give kudos to tab author, rate the tab!
1 2 3 4 5
comments
print report bad tab
1 comment total.
0 reply
sethcmorrison 10 wrote on December 3 2015, 03:10 pm

didn't like this contribution

guest
You may want to rate the tab now too:
select rating
Please do not post tabs as comments. Select "correction" instead!