Oops, an error
Loading. Please wait.

Dueling Banjos Tab

version 7
version 7
41,277 views 153 this week
3 commentsread comments
1 2 3 4 5
x 45
add to favorites
launch autoscroll
font size
0
reset
how to read this tab
guitar tuner
Autoscroll
slow
fast
+/-
esc
set tempo
stop
Help us to improve Ultimate-Guitar.com Take our survey!
×
Difficulty
intermediate
E|-----------3-------3-3-3--3--3----3-3-3--3--3--||(4x)
B|---------0---------0-0-0--1--0----0-0-0--1--0--||
G|-------0-----------0-0-0--0--0----0-0-0--0--0--||
D|-----0-------------0-0-0--2--0----0-0-0--2--0--||
A|---2---------------0-0-0--0--0----0-0-0--0--0--||
E|-3-----------------3-3-3--3--3----3-3-3--3--3--||


E|--------------------||(4x)        E|------------------||
B|-0-1-3-0-1---0------||            B|------------------||
G|-----------2---0-2--||            G|---0-0-2-4-0-4-2--||
D|--------------------||            D|-0----------------||
A|--------------------||            A|------------------||
E|--------------------||            E|------------------||


E|----------------------------------------------------------------||
B|-------------------------------0-1-3-1-0------------------------||
G|----------------------*0-0-0-2---------------------------0------||
D|-------------0-------------------------------------0-2-3---3-2--||
A|-------0-2-3---3-2---------------------------3-3-3--------------||
E|-3-3-3----------------------------------------------------------||


E|---------0-1-3-1-0----------------------------------------------||
B|*1-1-1-3---------------------------------------------0-1-3-1-0--||
G|--------------------------------------------*0-0-0-2------------||
D|-----------------------------------0----------------------------||
A|-----------------------------0-2-3---3-2------------------------||
E|-----------------------3-3-3------------------------------------||


E|-----------------------------0-2-3-5-3-2--||
B|----------------------*3-3-3--------------||
G|-----------0-2-0--------------------------||
D|-0-0-0-2-4-------4------------------------||
A|------------------------------------------||
E|------------------------------------------||


E|-3-3-3--3--3----3-3-3--3--3--||(2x)    E|-----------------------||(2x)
B|-0-0-0--1--0----0-0-0--1--0--||        B|-0-1-3-0-1---0---------||
G|-0-0-0--0--0----0-0-0--0--0--||        G|-----------2---0-2-----||
D|-0-0-0--2--0----0-0-0--2--0--||        D|-----------------------||
A|-0-0-0--0--0----0-0-0--0--0--||        A|-----------------------||
E|-3-3-3--3--3----3-3-3--3--3--||        E|-----------------------||

                                             C    G    D    G
E|-------------------------------------------0----3----2----3--||(2x)
B|-------------------------------------------1----0----3----0--||
G|---0-0-2-4-0-4-2-------0-0-2-4-0-4-2-------0----0----2----0--||
D|-0------------------*0---------------------2----0----0----0--||
A|-----------------------------------0-2-3---3----2----0----2--||
E|---------------------------------3---------0----3----0----3--||


E|------------------------------------------------------------------||
B|-------------------------------0-1-3-1-0--------------------------||
G|----------------------*0-0-0-2---------------------------0--------||
D|-------------0-------------------------------------0-2-3---3-2----||
A|-------0-2-3---3-2---------------------------3-3-3----------------||
E|-3-3-3------------------------------------------------------------||


E|---------0-1-3-1-0------------------------------------------------||
B|*1-1-1-3---------------------------------------------0-1-3-1-0----||
G|--------------------------------------------*0-0-0-2--------------||
D|-----------------------------------0------------------------------||
A|-----------------------------0-2-3---3-2--------------------------||
E|-----------------------3-3-3--------------------------------------||


E|-----------------------------0-2-3-5-3-2--||
B|----------------------*3-3-3--------------||
G|-----------0-2-0--------------------------||
D|-0-0-0-2-4-------4------------------------||
A|------------------------------------------||
E|------------------------------------------||


E|-3-3-3--3--3----3-3-3--3--3--||(2x)    E|--------------------||(2x)
B|-0-0-0--1--0----0-0-0--1--0--||        B|-0-1-3-0-1---0------||
G|-0-0-0--0--0----0-0-0--0--0--||        G|-----------2---0-2--||
D|-0-0-0--2--0----0-0-0--2--0--||        D|--------------------||
A|-0-0-0--0--0----0-0-0--0--0--||        A|--------------------||
E|-3-3-3--3--3----3-3-3--3--3--||        E|--------------------||

                                             C    G    D    G
E|-------------------------------------------0----3----2----3--||(2x end  
B|-------------------------------------------1----0----3----0--|| on C G)
G|---0-0-2-4-0-4-2-------0-0-2-4-0-4-2-------0----0----2----0--||
D|-0------------------*0---------------------2----0----0----0--||
A|-----------------------------------0-2-3---3----2----0----2--||
E|---------------------------------3---------0----3----0----3--||
Suggest correction
comments
print report bad tab
3 comments total.
0 reply
Wolfie363 55 Aug 18, 2014 03:53 PM

Nice! This is the best version I've seen.

0 reply
Bloodbarn 34 Jul 03, 2015 02:51 PM

best version here ! thank you

0 reply
izzytice 49 Apr 02, 2016 07:47 PM

capo on second fret

guest
You may want to rate the tab now too:
select rating
Wanna post a correction for this tab? Suggest correction