Oops, an error
Loading. Please wait.

He Who Knows No Fear Bass Tab

version 1
version 1

Whole song

Interactive

143 views 1 this week
no commentswrite comment
1 2 3 4 5
please rate
add to favorites
launch autoscroll
font size
0
reset
guitar tuner
Autoscroll
slow
fast
+/-
esc
set tempo
stop
Help us to improve Ultimate-Guitar.com Take our survey!
×
Author
#----------------------------------PLEASE NOTE---------------------------------#
#This file is the author's own work and represents their interpretation of the #
#song. You may only use this file for private study, scholarship, or research. #
#------------------------------------------------------------------------------#

HE WHO KNOWS NO FEAR (Bassline)
As recorded by Deliverance



Transcribed by Alex Whiting

 Music by Alex Whiting, Tom Lindsey
Arranged by Alex Whiting
 

Gtr I (E A D G) - 'Tom'


 Intro
  Q=94
             $
 4/4
  Gtr I
  Wx2            E S S S S S S +S  S S S S E.
|------------||-------------------------------|
|------------||o------------------------------|
|------------||o------------------------------|
|------------||--0-0-0-3s2-0-0-(0)-0-3s2-0-0--|


                                   1/4
  E S S S S S S +S  S S S S S E  4x Q
|--------------------------------||-----|
|-------------------------------o||-----|
|-------------------------------o||-----|
|-0-0-0-3s2-0-0-(0)-0-3s2-3-5----||-----|


   Verse
   4/4
    E S S E S S +S  S S S S S E   E S S E S S +S  S S S S S E
||------------------------------|-----------------------------|
||o-----------------------------|-----------------------------|
||o-----------------------------|-3-3-3-3-3-3-(3)-3-3-3-3-3-3-|
||--0-0-0-0-0-0-(0)-0-0-0-0-0-0-|-----------------------------|


  E S S E S S +S  S S S S S E   E S S E S S +S  S S S S S E
|-----------------------------|-----------------------------|
|-----------------------------|-----------------------------|
|-----------------------------|-----------------------------|
|-3-3-3-3-3-3-(3)-3-3-3-3-3-3-|-5-5-5-5-5-5-(5)-5-5-5-5-5-5-|


  E S S E S S +S  S S S S S E   E S S E S S +S  S S S S S E
|-----------------------------|-----------------------------|
|-----------------------------|-----------------------------|
|-----------------------------|-3-3-3-3-3-3-(3)-3-3-3-3-3-3-|
|-0-0-0-0-0-0-(0)-0-0-0-0-0-0-|-----------------------------|


  E S S E S S +S  S S S S S E   E S S E S S +S  S S S S S E
|-----------------------------|------------------------------||
|-----------------------------|-----------------------------o||
|-----------------------------|-----------------------------o||
|-3-3-3-3-3-3-(3)-3-3-3-3-3-3-|-5-5-5-5-5-7-(7)-7-7-7-7-7-7--||


   Chorus
    S S S S +S  S E S S S S +S  S E   S S S  S  +S  S E S S S  S  +S  S E
||----------------------------------|-------------------------------------|
||o---------------------------------|-------------------------------------|
||o---------------------------------|-------------------------------------|
||--0-0-0-3-(3)-0-0-0-0-0-3-(3)-0-0-|-7-7-7-10-(10)-7-7-7-7-7-10-(10)-7-7-|


                                                          D.S.
  S S S S +S  S E S S S S +S  S E   S S S S E S S S S S S  Q
|---------------------------------|------------------------------||
|---------------------------------|-----------------------------o||
|---------------------------------|-5-5-5-5-5-5-5-6-6-6-6-18\---o||
|-5-5-5-8-(8)-5-5-5-5-5-8-(8)-5-5-|------------------------------||


 Bridge
  Q.   E +E  E E E   Q.   E +E  E E E   Q.   E +E  E E E   Q.   E +E  E E E
|------------------|------------------|------------------|------------------|
|------------------|------------------|------------0-----|------------0-----|
|------0-(0)-2-0---|------0-(0)-2-0---|------2-(2)---2-1-|------2-(2)---2-1-|
|-0--------------4-|-0--------------4-|-3----------------|-3----------------|


  Q.   E +E  S S S S E   Q.   E +E  S S S S E
|----------------------|----------------------|
|------2-(2)-0-2-0-----|------2-(2)-0-2-0-----|
|-0----------------2-0-|-0----------------2-0-|
|----------------------|----------------------|


  Q.   E +E  E S S E   q  q  q  q
|-4----2-(2)-0-2p0h2-|--------------|
|--------------------|--------------|
|--------------------|-0------------|
|--------------------|----3--2--3---|


 Guitar Solo
  S S S S S S S S S S S S S S S S   S S S S S S S S S S S S S S S S
|---------------------------------|-4-4-4-4-4-4-4-4-4-4-4-4-4-4-4-4-|
|-2-2-2-2-2-2-2-2-2-2-2-2-2-2-2-2-|---------------------------------|
|---------------------------------|---------------------------------|
|---------------------------------|---------------------------------|


  S S S S S S S S S S S S S S S S   S S S S S S S S S S S S S S S S
|---------------------------------|-2-2-2-2-2-2-2-2-2-2-2-2-2-2-2-2-|
|-0-0-0-0-0-0-0-0-0-0-0-0-0-0-0-0-|---------------------------------|
|---------------------------------|---------------------------------|
|---------------------------------|---------------------------------|


  S S S S S S S S S S S S S S S S   S S S S S S S S S S S S S S S S
|---------------------------------|-4-4-4-4-4-4-4-4-4-4-4-4-4-4-4-4-|
|-2-2-2-2-2-2-2-2-2-2-2-2-2-2-2-2-|---------------------------------|
|---------------------------------|---------------------------------|
|---------------------------------|---------------------------------|


  S S S S S S S S S S S S S S S S   S S S S S S S S S S S S +Q
|---------------------------------|-2-2-2-2-2-2-2-2-2-0----------|
|-0-0-0-0-0-0-0-0-0-0-0-0-0-0-0-0-|---------------------4-2-(2)--|
|---------------------------------|------------------------------|
|---------------------------------|------------------------------|


   Outro
    S S E S S S S S S E S S S S
||------------------------------|
||o-----------------------------|
||o-5p3-5---------3p2-3---------|
||--------0-0-0-0-------0-0-0-0-|


  S S E S S S S S S S  S Q   4x Q.   S S Q  Q
|----------------------------||----------------*|
|---------------------------o||----------------*|
|-5p3-5-------7---9---10-9--o||------7s5-7-----*|
|-------0-0-0---0---0--------||----------------*|




--------------------------------------------------------------------------------


Duration Legend
---------------
W - whole; H - half; Q - quarter; E - 8th; S - 16th; T - 32nd; X - 64th; a - acciaccatura
+ - note tied to previous; . - note dotted; .. - note double dotted
Uncapitalized letters represent notes that are staccato (1/2 duration)
Irregular groupings are notated above the duration line
Duration letters will always appear directly above the note/fret number it represents the
duration for.  Duration letters with no fret number below them represent rests.  Multi-
bar rests are notated in the form Wxn, where n is the number of bars to rest for.  Low
melody durations appear below the staff

Tablature Legend
----------------
 h   - hammer-on
 p   - pull-off
 b   - bend
 pb  - pre-bend
 r   - bend release (if no number after the r, then release immediately)
 /\  - slide into or out of (from/to "nowhere")
 s   - legato slide
 S   - shift slide
 - natural harmonic
[n]  - artificial harmonic
n(n) - tapped harmonic
 ~   - vibrato
 tr  - trill
 T   - tap
 TP  - trem. picking
 PM  - palm muting
\n/  - tremolo bar dip; n = amount to dip
 \n  - tremolo bar down
 n/  - tremolo bar up
/n\  - tremolo bar inverted dip
 =   - hold bend; also acts as connecting device for hammers/pulls
 <> - volume swell (louder/softer)
 x   - on rhythm slash represents muted slash
 o   - on rhythm slash represents single note slash

Misc Legend
-----------
 |  - bar
||  - double bar
||o - repeat start
o|| - repeat end
*|  - double bar (ending)
 :  - bar (freetime)
 $  - Segno
 &  - Coda
Tempo markers -  = BPM(8/16=s8/s16), where s8 = swing 8ths, s16 = swing 16ths

Suggest correction
What's this?
You can suggest a correction to this tab. Community and Mods will review your correction and vote to approve or reject it.
comments
We did not receive enough feedback on this tab! Please rate:
print report bad tab
1 2 3 4 5
guest
You may want to rate the tab now too:
select rating
Please do not post tabs as comments. Select "correction" instead!