Oops, an error
Loading. Please wait.

He Who Knows No Fear Tab

version 1
version 1

Whole song

Interactive

384 views 1 this week
no commentswrite comment
1 2 3 4 5
please rate
add to favorites
launch autoscroll
font size
0
reset
how to read this tab
guitar tuner
Tab Pro tools
  • play this tab
  • loop segment
  • change instrument
  • show fretboard
  • metronome
Autoscroll
slow
fast
+/-
esc
set tempo
stop
Contributor
#----------------------------------PLEASE NOTE---------------------------------#
#This file is the author's own work and represents their interpretation of the #
#song. You may only use this file for private study, scholarship, or research. #
#------------------------------------------------------------------------------#

HE WHO KNOWS NO FEAR
As recorded by Deliverance



Transcribed by Alex Whiting

 Music by Alex Whiting, Tom Lindsey
Arranged by Alex Whiting
 

Gtr I (E A D G B E) - 'Alex'


 Intro
  Q=94
             $
                 E5    G5F#E5        G5F#E5
 4/4
  Gtr I
  Wx2            E S S S S S S +S  S S S S E.
|------------||-------------------------------|
|------------||o------------------------------|
|------------||-------------------------------|
|------------||--2-2-2-5s4-2-2-(2)-2-5s4-2-2--|
|------------||o-2-2-2-5s4-2-2-(2)-2-5s4-2-2--|
|------------||--0-0-0-3s2-0-0-(0)-0-3s2-0-0--|


        G5F#E5        G5F#G5A5
                                   1/4
  E S S S S S S +S  S S S S S E  4x Q
|--------------------------------||-----|
|-------------------------------o||-----|
|--------------------------------||-----|
|-2-2-2-5s4-2-2-(2)-2-5s4-5-7----||-----|
|-2-2-2-5s4-2-2-(2)-2-5s4-5-7---o||-----|
|-0-0-0-3s2-0-0-(0)-0-3s2-3-5----||-----|


   Verse
    Em                          C
   4/4
      PM----|    PM---------|     PM----|    PM---------|
    E E S S S S +S  S E E S S   E E S S S S +S  S E E S S
||----------------------------|----------------------------|
||o---------------------------|-5-5-5-5-5-5-(5)-5-5-5-5-5--|
||--0-0-0-0-0-0-(0)-0-0-0-0-0-|-5-5-5-5-5-5-(5)-5-5-5-5-5--|
||--2-2-2-2-2-2-(2)-2-2-2-2-2-|-5-5-5-5-5-5-(5)-5-5-5-5-5--|
||o-2-2-2-2-2-2-(2)-2-2-2-2-2-|-3-3-3-3-3-3-(3)-3-3-3-3-3--|
||--0-0-0-0-0-0-(0)-0-0-0-0-0-|----------------------------|


  G                           Am
    PM----|    PM---------|     PM----|    PM---------|
  E E S S S S +S  S E E S S   E E S S S S +S  S E E S S
|---------------------------|---------------------------|
|---------------------------|---------------------------|
|-4-4-4-4-4-4-(4)-4-4-4-4-4-|-5-5-5-5-5-5-(5)-5-5-5-5-5-|
|-5-5-5-5-5-5-(5)-5-5-5-5-5-|-7-7-7-7-7-7-(7)-7-7-7-7-7-|
|-5-5-5-5-5-5-(5)-5-5-5-5-5-|-7-7-7-7-7-7-(7)-7-7-7-7-7-|
|-3-3-3-3-3-3-(3)-3-3-3-3-3-|-5-5-5-5-5-5-(5)-5-5-5-5-5-|


  Em                          C
    PM----|    PM---------|     PM----|    PM---------|
  E E S S S S +S  S E E S S   E E S S S S +S  S E E S S
|---------------------------|---------------------------|
|---------------------------|-5-5-5-5-5-5-(5)-5-5-5-5-5-|
|-0-0-0-0-0-0-(0)-0-0-0-0-0-|-5-5-5-5-5-5-(5)-5-5-5-5-5-|
|-2-2-2-2-2-2-(2)-2-2-2-2-2-|-5-5-5-5-5-5-(5)-5-5-5-5-5-|
|-2-2-2-2-2-2-(2)-2-2-2-2-2-|-3-3-3-3-3-3-(3)-3-3-3-3-3-|
|-0-0-0-0-0-0-(0)-0-0-0-0-0-|---------------------------|


  G                           Am        B7
    PM----|    PM---------|     PM----|    PM---------|
  E E S S S S +S  S E E S S   E E S S S S +S  S E E S S
|---------------------------|----------------------------||
|---------------------------|---------------------------o||
|-4-4-4-4-4-4-(4)-4-4-4-4-4-|-5-5-5-5-5-8-(8)-8-8-8-8-8--||
|-5-5-5-5-5-5-(5)-5-5-5-5-5-|-7-7-7-7-7-7-(7)-7-7-7-7-7--||
|-5-5-5-5-5-5-(5)-5-5-5-5-5-|-7-7-7-7-7-9-(9)-9-9-9-9-9-o||
|-3-3-3-3-3-3-(3)-3-3-3-3-3-|-5-5-5-5-5-7-(7)-7-7-7-7-7--||


   Chorus
    Em                                    Bm
    S S S S +S  S S S S S S S +S  S S S   S S S S +S  S S S S S S S +S  S S S
||--------------------------------------|--------------------------------------|
||o-8p7---8-(8)-8-8-8-8p7---8-(8)-8-8-8-|-3p2---3-(3)-3-3-3-3p2---3-(3)-3-3-3--|
||--------9-(9)-9-9-9-------9-(9)-9-9-9-|-------4-(4)-4-4-4-------4-(4)-4-4-4--|
||------9-9-(9)-9-9-9-----9-9-(9)-9-9-9-|-----4-4-(4)-4-4-4-----4-4-(4)-4-4-4--|
||o-------------------------------------|--------------------------------------|
||--------------------------------------|--------------------------------------|


                                                              D.S.
  Am                                    D             D#
  S S S S +S  S S S S S S S +S  S S S   E S S S S S S E S S S S S S
|-------------------------------------|------------------------------||
|-1p0---1-(1)-1-1-1-1p0---1-(1)-1-1-1-|-7-7-7-7-7-7-7-8-8-8-8-8-8-8-o||
|-------2-(2)-2-2-2-------2-(2)-2-2-2-|-7-7-7-7-7-7-7-8-8-8-8-8-8-8--||
|-----2-2-(2)-2-2-2-----2-2-(2)-2-2-2-|-7-7-7-7-7-7-7-8-8-8-8-8-8-8--||
|-------------------------------------|-5-5-5-5-5-5-5-6-6-6-6-6-6-6-o||
|-------------------------------------|------------------------------||


 Bridge
  E5
  E E E E +E  E E E   E E E E +E  E E E
|-------------------|-------------------|
|-------------------|-------------------|
|-------------------|-------------------|
|-2-----2-(2)-2-----|-2-----2-(2)-2-----|
|---2---2-(2)---2---|---2---2-(2)---2---|
|-----0-0-(0)-----0-|-----0-0-(0)-----0-|


  G5
  E E E E +E  E E E   E E E E +E  E E E
|-------------------|-------------------|
|-------------------|-------------------|
|-------------------|-------------------|
|-5-----5-(5)-5-----|-5-----5-(5)-5-----|
|---5---5-(5)---5---|---5---5-(5)---5---|
|-----3-3-(3)-----3-|-----3-3-(3)-----3-|


  A5
  E E E E +E  E E E   E E E E +E  E E E
|-------------------|-------------------|
|-------------------|-------------------|
|-------------------|-------------------|
|-7-----7-(7)-7-----|-7-----7-(7)-7-----|
|---7---7-(7)---7---|---7---7-(7)---7---|
|-----5-5-(5)-----5-|-----5-5-(5)-----5-|


  B5      A#5       B5   D5       C#5
  E E E E E E E E   H     S  S  S  S  S S  E
|-----------------|---------------------------|
|-----------------|---------------------------|
|-----------------|---------------------------|
|-9-----9-8-----8-|-9----12-------11------11--|
|---9---9---8---8-|-9-------12-------11---11--|
|-----7-7-----6-6-|-7----------10-------9--9--|


 Guitar Solo
  N.C.
   E  S  S  S  S  S  S  E      E  T  +T   S  E
|-12-12-12-15p12-------------------------------|
|----------------15p12--------12---------------|
|----------------------14b16=====14r(14)p12----|
|-------------------------------------------14-|
|----------------------------------------------|
|----------------------------------------------|


                                  ~~~~
   E  S  S  S  S  S  S  S  S  E  +Q
|-------------------------------------|
|-------------------------------------|
|-12----------12-------14p12-14-(14)--|
|----14p12-------14p12----------------|
|----------14-------------------------|
|-------------------------------------|


                                       \2
   S     S  S  S  S     S  S  S  E  E  Q
|-------------------------------------17---|
|-------12h15p12-------12h15p12-15---------|
|-14b16----------14b16-------------14------|
|------------------------------------------|
|------------------------------------------|
|------------------------------------------|


   |--3--|  |--3--|  |--3--|  |--3--|
   S  S  S  S  S  S  S  S  S  S  S  S  S  E.  +E  S. T
|-17p15----17p15----17p15----17p15----18s19--(19)------|
|-------15-------15-------15-------15------------------|
|------------------------------------------------------|
|------------------------------------------------------|
|-------------------------------------------------7--7-|
|------------------------------------------------------|


     \2  /   \2  /   \2  /
  S +S  +S  +S  +S  +S  +E  S S S S S  E.
|-------------------------------------10--|
|-----------------------------------8-10--|
|-9-(9)-(9)-(9)-(9)-(9)-(9)-7-9-7-9-------|
|-----------------------------------------|
|-----------------------------------------|
|-----------------------------------------|


                             ~~~~
   |--3--|  |--3--|
   E  E  E  E  E  E  S  E.  +E   S.  T
|-12-10-------15-12-12-11--(11)--------|
|-------12S15-------------------12--12-|
|--------------------------------------|
|--------------------------------------|
|--------------------------------------|
|--------------------------------------|


   |--3--|  |--3--|  |--3--|  |--3--|  |--3--|  |--3--|  |--3--|  |--3--|
   S  S  S  S  S  S  S  S  S  S  S  S  S  S  S  S  S  S  S  S  S  S  S  S
|-15p12----15p12----15p12----15p12----17p14----17p14----17p14----17p14----|
|-------12-------12-------12-------12-------15-------15-------15-------15-|
|-------------------------------------------------------------------------|
|-------------------------------------------------------------------------|
|-------------------------------------------------------------------------|
|-------------------------------------------------------------------------|


   |--3--|  |--3--|  |--3--|  |--3--|
   S  S  S  S  S  S  S  S  S  S  S  S  E     E     Q
|-19p15----19p15----19p15----19p15----21b24-21b24-21b24===|
|-------17-------17-------17-------17---------------------|
|---------------------------------------------------------|
|---------------------------------------------------------|
|---------------------------------------------------------|
|---------------------------------------------------------|


   Outro
    D5C5D5        C5B5C5
          PM----|       PM----|
    S S E S S S S S S E S S S S
||------------------------------|
||o-----------------------------|
||--7-5-7---------5-4-5---------|
||--7-5-7---------5-4-5---------|
||o-5-3-5---------3-2-3---------|
||--------0-0-0-0-------0-0-0-0-|


  D5C5D5      E5  F#5  G5 F#5          E5D5E5
        PM--|   PM   PM
  S S E S S S S S  S S  S  Q   4x Q.   S S Q  Q
|------------------------------||----------------*|
|-----------------------------o||----------------*|
|-7-5-7-------9---11---12-11---||------9-7-9-----*|
|-7-5-7-------9---11---12-11---||------9-7-9-----*|
|-5-3-5-------7----9---10--9--o||------7-5-7-----*|
|-------0-0-0---0----0---------||----------------*|




--------------------------------------------------------------------------------


Duration Legend
---------------
W - whole; H - half; Q - quarter; E - 8th; S - 16th; T - 32nd; X - 64th; a - acciaccatura
+ - note tied to previous; . - note dotted; .. - note double dotted
Uncapitalized letters represent notes that are staccato (1/2 duration)
Irregular groupings are notated above the duration line
Duration letters will always appear directly above the note/fret number it represents the
duration for.  Duration letters with no fret number below them represent rests.  Multi-
bar rests are notated in the form Wxn, where n is the number of bars to rest for.  Low
melody durations appear below the staff

Tablature Legend
----------------
 h   - hammer-on
 p   - pull-off
 b   - bend
 pb  - pre-bend
 r   - bend release (if no number after the r, then release immediately)
 /\  - slide into or out of (from/to "nowhere")
 s   - legato slide
 S   - shift slide
 - natural harmonic
[n]  - artificial harmonic
n(n) - tapped harmonic
 ~   - vibrato
 tr  - trill
 T   - tap
 TP  - trem. picking
 PM  - palm muting
\n/  - tremolo bar dip; n = amount to dip
 \n  - tremolo bar down
 n/  - tremolo bar up
/n\  - tremolo bar inverted dip
 =   - hold bend; also acts as connecting device for hammers/pulls
 <> - volume swell (louder/softer)
 x   - on rhythm slash represents muted slash
 o   - on rhythm slash represents single note slash

Misc Legend
-----------
 |  - bar
||  - double bar
||o - repeat start
o|| - repeat end
*|  - double bar (ending)
 :  - bar (freetime)
 $  - Segno
 &  - Coda
Tempo markers -  = BPM(8/16=s8/s16), where s8 = swing 8ths, s16 = swing 16ths


comments
We did not receive enough feedback on this tab! Please rate:
print report bad tab
1 2 3 4 5
I want to post or [tab]
guest
You may want to rate the tab now too:
select rating
Please do not post tabs as comments. Select "correction" instead!