Oops, an error
Loading. Please wait.

Halcyon Tab

version 1
version 1

Solo

Interactive

3,107 views 1 this week
no commentswrite comment
1 2 3 4 5
x 5
add to favorites
launch autoscroll
font size
0
reset
how to read this tab
guitar tuner
Autoscroll
slow
fast
+/-
esc
set tempo
stop
Help us to improve Ultimate-Guitar.com Take our survey!
×
Difficulty
intermediate
-------------------------------------------------------------------------------
                             HALCYON - Delphic
-------------------------------------------------------------------------------

Tabbed by: Alex Blundell
Email: AlexBlundell@Sky.com

Tuning: Standard


--SOLO-BEGIN-- -(3:04)----------------------------------------------|
e|------------------------------------------------------------------|
B|-------5----------5------5-----------5----------5-------5---------|
G|--2---------2----------2--------2----------2---------2-2----------|
D|------------------------------------------------------------------|
A|------------------------------------------------------------------|
E|------------------------------------------------------------------|

e|-------------------------------------------------------3----------|
B|----5-------------------3--------------5----3---------------5-----|
G|--2---0-2-5-0-2-----0-2---5-2-0---2--0----0----0-0-2-0----2---0-2-|
D|----------------0-2-------------0---------------------------------|
A|------------------------------------------------------------------|
E|------------------------------------------------------------------|

e|-----------------------5-3---------3--------5/8-----8-----8---8---|
B|-------3-------3-----------5---------3-5------6-6-6-6-6-6-6-6-5-5-|
G|-5-0-2---0-2-5---5-2-0-------0-0-2-------2------------------------|
D|------------------------------------------------------------------|
A|------------------------------------------------------------------|
E|------------------------------------------------------------------|

e|---8-----8-------------3-----------------------10-10----8---------|
B|-5-5-5-5-5-5-------5-----3-5--8b10-10b12-11b13-------10---8-10--5-|
G|---------------2-2---2----------------------------------------7---|
D|------------------------------------------------------------------|
A|------------------------------------------------------------------|
E|------------------------------------------------------------------|

e|-----------------------------------------------------------------|
B|-5---8/10------8b10--6b8-----------------------------------------|
G|---7------7-7-------------7b9--5b7--5----------------------------|
D|-----------------------------------------------------------------|
A|-----------------------------------------------------------------|
E|-----------------------------------------------------------------|

--SOLO-END-- -(3:38)-

************************************

| /   slide up
| \   slide down
| h   hammer-on
| p   pull-off
| ~   vibrato
| +   harmonic
| x   Mute note
| b   Bend
| pb  Pre-bend
| br  Bend release
| pbr Pre-bend release
| brb Bend release bend

************************************
Suggest correction
comments
print report bad tab
guest
You may want to rate the tab now too:
select rating
Wanna post a correction for this tab? Suggest correction