Oops, an error
Loading. Please wait.

Submission Bass Tab

390 views 1 this week
no commentswrite comment
1 2 3 4 5
please rate
add to favorites
launch autoscroll
font size
0
reset
guitar tuner
Autoscroll
slow
fast
+/-
esc
set tempo
stop
Help us to improve Ultimate-Guitar.com Take our survey!
×
Author
Tabbed by Alice Irvine (Alice637)


Intro
G|-----------------------------------------------------|
D|-----------------------------------------------------|
A|----2--222-222-222--222-222-222-222-22---------------|
E|-----------------------------------------------------|

Pre-verse
G|------------------------------------------------------------|
D|------------------------------------------02----------------|
A|---2-22----0-00------------------2-22--0---------------00---|
E|-------------------2-22---0-00-----------------2-22--0------|

Verse 1
(Always a new temptation...)
G|------------------------------------------------------------|
D|------------------------------------------------------------|
A|---2-22----0-00------------------2-22---0-00-----------00---|
E|-------------------2-22---0-00----------------2-22---0------|

G|------------------------------------------------------------|
D|----------------------------------------------0-00--2-22----|
A|---2-22----0-00------------------2-22---0-00----------------|
E|-------------------2-22---0-00------------------------------|


G|---------------------------------------|
D|-------------02------------------------|
A|---2-22----0-----------------00--------|
E|-------------------2-22---0------------|


Verse 2
(The less you expect from me the less you get...)
G|------------------------------------------------------------|
D|------------------------------------------------------------|
A|---2-22----0-00------------------2-22---0-00-----------00---|
E|-------------------2-22---0-00----------------2-22---0------|

G|------------------------------------------------------------|
D|----------------------------------------------0-00--2-22----|
A|---2-22----0-00------------------2-22---0-00----------------|
E|-------------------2-22---0-00------------------------------|

G|---------------------------------------|
D|-------------02------------------------|
A|---2-22----0-----------------00--------|
E|-------------------2-22---0------------|



Bridge (2:01)
G|---------------------------------------------------------|
D|----------------0-00------------------------0-00---------|
A|-----------------------2-22------------------------2-22--|
E|---2-22--0-00------------------2-22--0-00----------------|



Verse 3
(Always a new temptation..)
G|-----------------------------------------------------|
D|-----------------------------------------------------|
A|----2--222-222-222--222-222-222-222-22---------------|
E|-----------------------------------------------------|
The first note is held longer than the others

G|------------------------------------------------------------|
D|----------------------------------------------0-00--2-22----|
A|---2-22----0-00------------------2-22---0-00----------------|
E|-------------------2-22---0-00------------------------------|


Bridge
G|-----------------------------------------------------|
D|-----------------------------------------------------|
A|----2--222-222-222--222-222-222-222-22---------------|
E|-----------------------------------------------------|

G|---------------------------------------------------------|
D|----------------0-00------------------------0-00---------|
A|-----------------------2-22------------------------2-22--|
E|---2-22--0-00------------------2-22--0-00----------------|

G|---------------------------------------------------------|
D|----------------0-00------------------------0-00---------|
A|-----------------------2-22------------------------2-22--|
E|---2-22--0-00------------------2-22--0-00----------------|


(I don't recognise myself..)
G|---------------------------------|
D|---------------------------------|
A|---2-22----0-00------------------|
E|-------------------2-22---0-00---|


Play this under the guitar solo
G|------------------------------------------------------------|
D|------------------------------------------------------------|
A|---2-22----0-00------------------2-22---0-00-----------00---|
E|-------------------2-22---0-00----------------2-22---0------|

G|------------------------------------------------------------|
D|------------------------------------------------------------|
A|---2-22----0-00------------------2-22---0-00-----------00---|
E|-------------------2-22---0-00----------------2-22---0------|

G|------------------------------------------------------------|
D|----------------------------------------------0-00--2-22----|
A|---2-22----0-00------------------2-22---0-00----------------|
E|-------------------2-22---0-00------------------------------|



And it ends on this
G|-----------------------------------------------------|
D|-----------------------------------------------------|
A|----2--222-222-222--222-222-222-222-22---------------|
E|-----------------------------------------------------|
Suggest correction
Give kudos to tab author, rate the tab!
1 2 3 4 5
comments
print report bad tab
guest
You may want to rate the tab now too:
select rating
Wanna post a correction for this tab? Suggest correction