Oops, an error
Loading. Please wait.

Skapgoat tab

version 1
version 1

Whole song

by DELUHI
413 views 3 this week
no commentswrite comment
1 2 3 4 5
3 more votes to show rating
add to favorites
×
Save as Personal and add changes to this tab that will be seen only by you. Learn more ›
×
You can save this tab as Personal to edit and correct it or add notes. All changes will be seen only by you. Learn more »
launch autoscroll
font size
0
reset
how to read this tab
guitar tuner
edit
Autoscroll
slow
fast
+/-
esc
set tempo
stop
                                 s[K]ape:goat                                   


                                                                          Deluhi
Leda (Rhythm)



                                    PM PM PM    PM    PM     
             Q    Q    Q    Q       E  E  E  E  E  E  E  E   
D||-------|----------------------|--------------------------|
A||-------|----------------------|--------------------------|
F||-------|----------------------|--------------------------|
C||-------|--6----1--------------|--------------------------|
G||-------|--6----1--------------|-----------8-----7-----8--|
C||-------|--6----1--------------|--0--0--0-----0-----0-----|


  PM PM PM    PM    PM       PM PM PM    PM    PM     
  E  E  E  E  E  E  E  E     E  E  E  E  E  E  E  E   
--------------------------|--------------------------|
--------------------------|--------------------------|
--------------------------|--------------------------|
--------------------------|--------------------------|
-----------8-----7-----8--|-----------8-----7-----8--|
--0--0--0-----0-----0-----|--5--5--5-----5-----5-----|


  PM PM PM     PM    PM       PM PM PM    PM    PM     
  E  E  E   E  E  E  E  E     E  E  E  E  E  E  E  E   
---------------------------|--------------------------|
---------------------------|--------------------------|
---------------------------|--------------------------|
---------------------------|--------------------------|
-----------10-----8-----7--|-----------8-----7-----8--|
--7--7--7------7-----7-----|--0--0--0-----0-----0-----|


  PM PM PM    PM    PM       PM PM PM    PM    PM     
  E  E  E  E  E  E  E  E     E  E  E  E  E  E  E  E   
--------------------------|--------------------------|
--------------------------|--------------------------|
--------------------------|--------------------------|
--------------------------|--------------------------|
-----------8-----7-----8--|-----------8-----7-----8--|
--0--0--0-----0-----0-----|--5--5--5-----5-----5-----|


  PM PM PM     PM    PM       PM PM PM    PM    PM     
  E  E  E   E  E  E  E  E     E  E  E  E  E  E  E  E   
---------------------------|--------------------------|
---------------------------|--------------------------|
---------------------------|--------------------------|
---------------------------|--------------------------|
-----------10-----8-----7--|-----------8-----7-----8--|
--7--7--7------7-----7-----|--0--0--0-----0-----0-----|


  PM PM PM    PM    PM       PM PM PM    PM    PM     
  E  E  E  E  E  E  E  E     E  E  E  E  E  E  E  E   
--------------------------|--------------------------|
--------------------------|--------------------------|
--------------------------|--------------------------|
--------------------------|--------------------------|
-----------8-----7-----8--|-----------8-----7-----8--|
--0--0--0-----0-----0-----|--5--5--5-----5-----5-----|


  PM PM PM     PM    PM       PM PM PM    PM    PM     
  E  E  E   E  E  E  E  E     E  E  E  E  E  E  E  E   
---------------------------|--------------------------|
---------------------------|--------------------------|
---------------------------|--------------------------|
---------------------------|--------------------------|
-----------10-----8-----7--|-----------8-----7-----8--|
--7--7--7------7-----7-----|--0--0--0-----0-----0-----|


  PM PM PM    PM    PM       PM PM PM    PM    PM     
  E  E  E  E  E  E  E  E     E  E  E  E  E  E  E  E   
--------------------------|--------------------------|
--------------------------|--------------------------|
--------------------------|--------------------------|
--------------------------|--------------------------|
-----------8-----7-----8--|-----------8-----7-----8--|
--0--0--0-----0-----0-----|--5--5--5-----5-----5-----|


                               PM          PM          PM      
  E   E  E  E   E  E  E  E     E   E    E  E   E    E  E   E   
----------------------------|---------------------------------|
----------------------------|---------------------------------|
----------------------------|---------------------------------|
--7--10--8--7---------------|-----------------------------10--|
---------------10--8--7--5--|-----10h--12-----10h--12---------|
----------------------------|--8-----------8-----------8------|


  PM    PM     PM     PM         PM           PM           PM      
  E  E  E   E  E   E  E   E      E   E    E   E   E    E   E   E   
-----------------------------|------------------------------------|
-----------------------------|------------------------------------|
-----------------------------|------------------------------------|
-----8-----------------------|--------------------------------10--|
-----------12-----10-----12--|------10h--12------10h--12----------|
--8-----8------8------8------|--10-----------10-----------10------|


   PM      PM      PM      PM        PM         PM         PM     
   E   E   E   E   E   E   E   E     E  E    E  E  E    E  E  E   
----------------------------------|------------------------------|
----------------------------------|------------------------------|
----------------------------------|------------------------------|
----------------------------------|---------------------------7--|
------13------12------10------12--|-----8h--10-----8h--10--------|
--10------10------10------10------|--7----------7----------7-----|


  PM     PM    PM    PM         PM           PM           PM      
  E   E  E  E  E  E  E   E      E   E    E   E   E    E   E   E   
----------------------------|------------------------------------|
----------------------------|------------------------------------|
----------------------------|------------------------------------|
----------------------------|--------------------------------15--|
-----10-----8-----7-----10--|------12h--15------12h--15----------|
--7------7-----7-----7------|--12-----------12-----------12------|


   PM      PM      PM      PM        PM          PM          PM      
   E   E   E   E   E   E   E   E     E   E    E  E   E    E  E   E   
----------------------------------|---------------------------------|
----------------------------------|---------------------------------|
----------------------------------|---------------------------------|
------14--------------------------|-----------------------------10--|
--------------15------12------15--|-----10h--12-----10h--12---------|
--12------12------12------12------|--8-----------8-----------8------|


  PM    PM     PM     PM         PM           PM           PM      
  E  E  E   E  E   E  E   E      E   E    E   E   E    E   E   E   
-----------------------------|------------------------------------|
-----------------------------|------------------------------------|
-----------------------------|------------------------------------|
-----8-----------------------|--------------------------------10--|
-----------12-----10-----12--|------10h--12------10h--12----------|
--8-----8------8------8------|--10-----------10-----------10------|


   PM      PM      PM      PM                  PM PM PM PM  
   E   E   E   E   E   E   E   E     Q    Q    E  E  E  E   
----------------------------------|------------------------|
----------------------------------|------------------------|
----------------------------------|------------------------|
----------------------------------|--7----7----7--7--7--7--|
------13------12------10------12--|--7----7----------------|
--10------10------10------10------|--7----7----------------|


            PM PM PM PM                                            
  Q    Q    E  E  E  E     Q.     Q.     Q       W                 
------------------------|---------------------|-------------------|
------------------------|---------------------|-------------------|
------------------------|---------------------|-------------------|
--7----7----7--7--7--7--|--4------4------4----|--4----------------|
--7----7----------------|--4------4------4----|--4----------------|
--7----7----------------|--4------4------4----|--4----------------|


  H        E   E   E  E     W                   W                 
-------------------------|-------------------|-------------------|
-------------------------|-------------------|-------------------|
-----------7p--6p--4-----|-------------------|-------------------|
--L-------------------5--|--L----------------|--L----------------|
--L-------------------5--|--L----------------|--L----------------|
--L-------------------5--|--L----------------|--L----------------|


  W                   W                   W                   W                 
-------------------|-------------------|-------------------|-------------------|
-------------------|-------------------|-------------------|-------------------|
-------------------|-------------------|-------------------|-------------------|
--7----------------|--5----------------|--4----------------|--8----------------|
--7----------------|--5----------------|--4----------------|--9----------------|
--7----------------|--5----------------|--4----------------|--8----------------|


  W                   H        E   E   E  E     W                 
-------------------|-------------------------|-------------------|
-------------------|-------------------------|-------------------|
-------------------|-----------7p--6p--4-----|-------------------|
--9----------------|--7-------------------5--|--L----------------|
--9----------------|--7-------------------5--|--L----------------|
--9----------------|--7-------------------5--|--L----------------|


  W                   W                   W                   W                 
-------------------|-------------------|-------------------|-------------------|
-------------------|-------------------|-------------------|-------------------|
-------------------|-------------------|-------------------|-------------------|
--L----------------|--7----------------|--8----------------|--9----------------|
--L----------------|--7----------------|--9----------------|--9----------------|
--L----------------|--7----------------|--8----------------|--9----------------|


  H         H            W                   H        E   E   E  E   
---------------------|--------------------|-------------------------|
---------------------|--------------------|-------------------------|
---------------------|--------------------|-----------7p--6p--4-----|
--L--------11--------|--12----------------|--L-------------------5--|
--L--------12--------|--12----------------|--L-------------------5--|
--L--------11--------|--12----------------|--L-------------------5--|


  W                   W                   W                   W                 
-------------------|-------------------|-------------------|-------------------|
-------------------|-------------------|-------------------|-------------------|
-------------------|-------------------|-------------------|-------------------|
--L----------------|--L----------------|--7----------------|--5----------------|
--L----------------|--L----------------|--7----------------|--5----------------|
--L----------------|--L----------------|--7----------------|--5----------------|


  W                   W                   W                 
-------------------|-------------------|-------------------|
-------------------|-------------------|-------------------|
-------------------|-------------------|-------------------|
--4----------------|--8----------------|--9----------------|
--4----------------|--9----------------|--9----------------|
--4----------------|--8----------------|--9----------------|


  H        E   E   E  E     W                   W                 
-------------------------|-------------------|-------------------|
-------------------------|-------------------|-------------------|
-----------7p--6p--4-----|-------------------|-------------------|
--7-------------------5--|--L----------------|--L----------------|
--7-------------------5--|--L----------------|--L----------------|
--7-------------------5--|--L----------------|--L----------------|


  PM PM PM PM PM PM PM       PM PM PM PM PM PM PM     
  E  E  E  E  E  E  E  E     E  E  E  E  E  E  E  E   
--------------------------|--------------------------|
--------------------------|--------------------------|
--------------------------|--------------------------|
--7-----------------------|--8-----------------------|
--7-----------------------|--9-----------------------|
--7--7--7--7--7--7--7--7--|--8--8--8--8--8--8--8--8--|


  PM PM PM    PM    PM       PM PM PM    PM    PM     
  E  E  E  E  E  E  E  E     E  E  E  E  E  E  E  E   
--------------------------|--------------------------|
--------------------------|--------------------------|
--------------------------|--------------------------|
--------------------------|--------------------------|
-----------8-----7-----8--|-----------8-----7-----8--|
--0--0--0-----0-----0-----|--0--0--0-----0-----0-----|


  PM PM PM    PM    PM       PM PM PM     PM    PM     
  E  E  E  E  E  E  E  E     E  E  E   E  E  E  E  E   
--------------------------|---------------------------|
--------------------------|---------------------------|
--------------------------|---------------------------|
--------------------------|---------------------------|
-----------8-----7-----8--|-----------10-----8-----7--|
--5--5--5-----5-----5-----|--7--7--7------7-----7-----|


  PM PM PM    PM    PM       PM PM PM    PM    PM     
  E  E  E  E  E  E  E  E     E  E  E  E  E  E  E  E   
--------------------------|--------------------------|
--------------------------|--------------------------|
--------------------------|--------------------------|
--------------------------|--------------------------|
-----------8-----7-----8--|-----------8-----7-----8--|
--0--0--0-----0-----0-----|--0--0--0-----0-----0-----|


  PM PM PM    PM    PM       PM PM PM     PM    PM     
  E  E  E  E  E  E  E  E     E  E  E   E  E  E  E  E   
--------------------------|---------------------------|
--------------------------|---------------------------|
--------------------------|---------------------------|
--------------------------|---------------------------|
-----------8-----7-----8--|-----------10-----8-----7--|
--5--5--5-----5-----5-----|--7--7--7------7-----7-----|


  PM PM PM    PM    PM       PM PM PM    PM    PM     
  E  E  E  E  E  E  E  E     E  E  E  E  E  E  E  E   
--------------------------|--------------------------|
--------------------------|--------------------------|
--------------------------|--------------------------|
--------------------------|--------------------------|
-----------8-----7-----8--|-----------8-----7-----8--|
--0--0--0-----0-----0-----|--0--0--0-----0-----0-----|


  PM PM PM    PM    PM       PM PM PM     PM    PM     
  E  E  E  E  E  E  E  E     E  E  E   E  E  E  E  E   
--------------------------|---------------------------|
--------------------------|---------------------------|
--------------------------|---------------------------|
--------------------------|---------------------------|
-----------8-----7-----8--|-----------10-----8-----7--|
--5--5--5-----5-----5-----|--7--7--7------7-----7-----|


  PM PM PM    PM    PM       PM PM PM    PM    PM     
  E  E  E  E  E  E  E  E     E  E  E  E  E  E  E  E   
--------------------------|--------------------------|
--------------------------|--------------------------|
--------------------------|--------------------------|
--------------------------|--------------------------|
-----------8-----7-----8--|-----------8-----7-----8--|
--0--0--0-----0-----0-----|--0--0--0-----0-----0-----|


  PM PM PM    PM    PM                                  
  E  E  E  E  E  E  E  E     E   E  E  E   E  E  E  E   
--------------------------|----------------------------|
--------------------------|----------------------------|
--------------------------|----------------------------|
--------------------------|--7--10--8--7---------------|
-----------8-----7-----8--|---------------10--8--7--5--|
--5--5--5-----5-----5-----|----------------------------|


  PM          PM          PM        PM    PM     PM     PM      
  E   E    E  E   E    E  E   E     E  E  E   E  E   E  E   E   
---------------------------------|-----------------------------|
---------------------------------|-----------------------------|
---------------------------------|-----------------------------|
-----------------------------10--|-----8-----------------------|
-----10h--12-----10h--12---------|-----------12-----10-----12--|
--8-----------8-----------8------|--8-----8------8------8------|


   PM           PM           PM         PM      PM      PM      PM      
   E   E    E   E   E    E   E   E      E   E   E   E   E   E   E   E   
------------------------------------|----------------------------------|
------------------------------------|----------------------------------|
------------------------------------|----------------------------------|
--------------------------------10--|----------------------------------|
------10h--12------10h--12----------|------13------12------10------12--|
--10-----------10-----------10------|--10------10------10------10------|


  PM         PM         PM       PM     PM    PM    PM      
  E  E    E  E  E    E  E  E     E   E  E  E  E  E  E   E   
------------------------------|----------------------------|
------------------------------|----------------------------|
------------------------------|----------------------------|
---------------------------7--|----------------------------|
-----8h--10-----8h--10--------|-----10-----8-----7-----10--|
--7----------7----------7-----|--7------7-----7-----7------|


   PM           PM           PM         PM      PM      PM      PM      
   E   E    E   E   E    E   E   E      E   E   E   E   E   E   E   E   
------------------------------------|----------------------------------|
------------------------------------|----------------------------------|
------------------------------------|----------------------------------|
--------------------------------15--|------14--------------------------|
------12h--15------12h--15----------|--------------15------12------15--|
--12-----------12-----------12------|--12------12------12------12------|


  PM          PM          PM        PM    PM     PM     PM      
  E   E    E  E   E    E  E   E     E  E  E   E  E   E  E   E   
---------------------------------|-----------------------------|
---------------------------------|-----------------------------|
---------------------------------|-----------------------------|
-----------------------------10--|-----8-----------------------|
-----10h--12-----10h--12---------|-----------12-----10-----12--|
--8-----------8-----------8------|--8-----8------8------8------|


   PM           PM           PM         PM      PM      PM      PM      
   E   E    E   E   E    E   E   E      E   E   E   E   E   E   E   E   
------------------------------------|----------------------------------|
------------------------------------|----------------------------------|
------------------------------------|----------------------------------|
--------------------------------10--|----------------------------------|
------10h--12------10h--12----------|------13------12------10------12--|
--10-----------10-----------10------|--10------10------10------10------|


            PM PM  PM PM PM  PM                   PM PM  PM PM PM  PM  
            |---3--|  |---3--|          |---3--|  |---3--|  |---3--|   
  Q    Q    E  E   E  E  E   E     Q    E  E   E  E  E   E  E  E   E   
--------------------------------|-------------------------------------|
--------------------------------|-------------------------------------|
--------------------------------|-------------------------------------|
--7----7--------------7--8--10--|--7------------------------7--8--10--|
--7----7----7--8--10------------|--7--------------7--8--10------------|
--7----7------------------------|--7----7--8--10----------------------|


  Q.     Q.     Q       W                   H        E   E   E  E   
---------------------|-------------------|-------------------------|
---------------------|-------------------|-------------------------|
---------------------|-------------------|-----------7p--6p--4-----|
--4------4------4----|--4----------------|--L-------------------5--|
--4------4------4----|--4----------------|--L-------------------5--|
--4------4------4----|--4----------------|--L-------------------5--|


  W                   W                   W                   W                 
-------------------|-------------------|-------------------|-------------------|
-------------------|-------------------|-------------------|-------------------|
-------------------|-------------------|-------------------|-------------------|
--L----------------|--L----------------|--7----------------|--5----------------|
--L----------------|--L----------------|--7----------------|--5----------------|
--L----------------|--L----------------|--7----------------|--5----------------|


  W                   W                   W                 
-------------------|-------------------|-------------------|
-------------------|-------------------|-------------------|
-------------------|-------------------|-------------------|
--4----------------|--8----------------|--9----------------|
--4----------------|--9----------------|--9----------------|
--4----------------|--8----------------|--9----------------|


  H        E   E   E  E     W                   W                 
-------------------------|-------------------|-------------------|
-------------------------|-------------------|-------------------|
-----------7p--6p--4-----|-------------------|-------------------|
--7-------------------5--|--L----------------|--L----------------|
--7-------------------5--|--L----------------|--L----------------|
--7-------------------5--|--L----------------|--L----------------|


  W                   W                   W                 
-------------------|-------------------|-------------------|
-------------------|-------------------|-------------------|
-------------------|-------------------|-------------------|
--7----------------|--8----------------|--9----------------|
--7----------------|--9----------------|--9----------------|
--7----------------|--8----------------|--9----------------|


  H         H            W                   H        E   E   E  E   
---------------------|--------------------|-------------------------|
---------------------|--------------------|-------------------------|
---------------------|--------------------|-----------7p--6p--4-----|
--L--------11--------|--12----------------|--L-------------------5--|
--L--------12--------|--12----------------|--L-------------------5--|
--L--------11--------|--12----------------|--L-------------------5--|


  W                   W                   W                   W                 
-------------------|-------------------|-------------------|-------------------|
-------------------|-------------------|-------------------|-------------------|
-------------------|-------------------|-------------------|-------------------|
--L----------------|--L----------------|--7----------------|--5----------------|
--L----------------|--L----------------|--7----------------|--5----------------|
--L----------------|--L----------------|--7----------------|--5----------------|


  W                   W                   W                 
-------------------|-------------------|-------------------|
-------------------|-------------------|-------------------|
-------------------|-------------------|-------------------|
--4----------------|--8----------------|--9----------------|
--4----------------|--9----------------|--9----------------|
--4----------------|--8----------------|--9----------------|


  H        E   E   E  E     W                   W                 
-------------------------|-------------------|-------------------|
-------------------------|-------------------|-------------------|
-----------7p--6p--4-----|-------------------|-------------------|
--7-------------------5--|--L----------------|--L----------------|
--7-------------------5--|--L----------------|--L----------------|
--7-------------------5--|--L----------------|--L----------------|


  PM PM PM PM PM PM PM       PM PM PM PM PM PM PM                         
  E  E  E  E  E  E  E  E     E  E  E  E  E  E  E  E     W                 
--------------------------|--------------------------|-------------------|
--------------------------|--------------------------|-------------------|
--------------------------|--------------------------|-------------------|
--7-----------------------|--8-----------------------|--9----------------|
--7-----------------------|--9-----------------------|--9----------------|
--7--7--7--7--7--7--7--7--|--8--8--8--8--8--8--8--8--|--9----------------|


  W                   W                     H.               E               
-------------------|--------------------|-----------------|-----|-----|-----|
-------------------|--------------------|-----------------|-----|-----|-----|
-------------------|--------------------|-----------------|-----|-----|-----|
--L----------------|--Ls----------------|--12\------------|--L--|-----|-----|
--L----------------|--Ls----------------|--12\------------|--L--|-----|-----|
--L----------------|--Ls----------------|--12\------------|--L--|-----|-----|


-----|-----|-----|-----|-----|-----|-----|-----|-----|-----|-----|-----|-----|
-----|-----|-----|-----|-----|-----|-----|-----|-----|-----|-----|-----|-----|
-----|-----|-----|-----|-----|-----|-----|-----|-----|-----|-----|-----|-----|
-----|-----|-----|-----|-----|-----|-----|-----|-----|-----|-----|-----|-----|
-----|-----|-----|-----|-----|-----|-----|-----|-----|-----|-----|-----|-----|
-----|-----|-----|-----|-----|-----|-----|-----|-----|-----|-----|-----|-----|


  H         H            H.           Q       H        H         
----------------------|--------------------|--------------------|
----------------------|--------------------|--------------------|
----------------------|--------------------|--------------------|
-----------12\--------|--0------------0----|--L--------0--------|
-----------12\--------|--0------------0----|--L--------0--------|
-----------12\--------|--0------------0----|--L--------0--------|


  H.           Q       H        H           H.           Q     
--------------------|--------------------|--------------------|
--------------------|--------------------|--------------------|
--------------------|--------------------|--------------------|
--3------------3----|--L--------3--------|--8------------8----|
--3------------3----|--L--------3--------|--8------------8----|
--3------------3----|--L--------3--------|--8------------8----|


  H        H           H.           Q       H        H         
--------------------|--------------------|--------------------|
--------------------|--------------------|--------------------|
--------------------|--------------------|--------------------|
--L--------8--------|--7------------7----|--L--------7--------|
--L--------8--------|--7------------7----|--L--------7--------|
--L--------8--------|--7------------7----|--L--------7--------|


  H.           Q       H        H           H.           Q     
--------------------|--------------------|--------------------|
--------------------|--------------------|--------------------|
--------------------|--------------------|--------------------|
--0------------0----|--L--------0--------|--3------------3----|
--0------------0----|--L--------0--------|--3------------3----|
--0------------0----|--L--------0--------|--3------------3----|


  H        H           H.           Q       H        H         
--------------------|--------------------|--------------------|
--------------------|--------------------|--------------------|
--------------------|--------------------|--------------------|
--L--------3--------|--8------------8----|--L--------8--------|
--L--------3--------|--8------------8----|--L--------8--------|
--L--------3--------|--8------------8----|--L--------8--------|


  H.           Q       H        H           H.           Q     
--------------------|--------------------|--------------------|
--------------------|--------------------|--------------------|
--------------------|--------------------|--------------------|
--7------------7----|--L--------7--------|--0------------0----|
--7------------7----|--L--------7--------|--0------------0----|
--7------------7----|--L--------7--------|--0------------0----|


  H        H           H.           Q       H        H         
--------------------|--------------------|--------------------|
--------------------|--------------------|--------------------|
--------------------|--------------------|--------------------|
--L--------0--------|--3------------3----|--L--------3--------|
--L--------0--------|--3------------3----|--L--------3--------|
--L--------0--------|--3------------3----|--L--------3--------|


  H.           Q       H        H           H.           Q     
--------------------|--------------------|--------------------|
--------------------|--------------------|--------------------|
--------------------|--------------------|--------------------|
--8------------8----|--L--------8--------|--7------------7----|
--8------------8----|--L--------8--------|--7------------7----|
--8------------8----|--L--------8--------|--7------------7----|


  H        H           H.           Q       H        H         
--------------------|--------------------|--------------------|
--------------------|--------------------|--------------------|
--------------------|--------------------|--------------------|
--L--------7--------|--0------------0----|--L--------0--------|
--L--------7--------|--0------------0----|--L--------0--------|
--L--------7--------|--0------------0----|--L--------0--------|


  H.           Q       H        H           H.           Q     
--------------------|--------------------|--------------------|
--------------------|--------------------|--------------------|
--------------------|--------------------|--------------------|
--3------------3----|--L--------3--------|--8------------8----|
--3------------3----|--L--------3--------|--8------------8----|
--3------------3----|--L--------3--------|--8------------8----|


  H        H            H.            Q       H         H         
--------------------|----------------------|---------------------|
--------------------|----------------------|---------------------|
--------------------|----------------------|---------------------|
--L--------8--------|--10------------10----|--L--------10--------|
--L--------8--------|--10------------10----|--L--------10--------|
--L--------8--------|--10------------10----|--L--------10--------|


  Q    H        Q       H        Q    Q       Q    H.            
---------------------|---------------------|--------------------|
---------------------|---------------------|--------------------|
---------------------|---------------------|--------------------|
--7-------------7----|-----------7---------|-------7------------|
--7-------------7----|-----------7---------|-------7------------|
--7-------------7----|-----------7---------|-------7------------|


  W                   W                   W                   W                 
-------------------|-------------------|-------------------|-------------------|
-------------------|-------------------|-------------------|-------------------|
-------------------|-------------------|-------------------|-------------------|
--L----------------|--L----------------|--L----------------|--0----------------|
--L----------------|--L----------------|--L----------------|--0----------------|
--L----------------|--L----------------|--L----------------|--0----------------|


  H        E   E   E  E     W                   W                 
-------------------------|-------------------|-------------------|
-------------------------|-------------------|-------------------|
-----------7p--6p--4-----|-------------------|-------------------|
--L-------------------5--|--L----------------|--L----------------|
--L-------------------5--|--L----------------|--L----------------|
--L-------------------5--|--L----------------|--L----------------|


  W                   W                   W                   W                 
-------------------|-------------------|-------------------|-------------------|
-------------------|-------------------|-------------------|-------------------|
-------------------|-------------------|-------------------|-------------------|
--7----------------|--5----------------|--4----------------|--8----------------|
--7----------------|--5----------------|--4----------------|--9----------------|
--7----------------|--5----------------|--4----------------|--8----------------|


  W                   H        E   E   E  E     W                 
-------------------|-------------------------|-------------------|
-------------------|-------------------------|-------------------|
-------------------|-----------7p--6p--4-----|-------------------|
--9----------------|--7-------------------5--|--L----------------|
--9----------------|--7-------------------5--|--L----------------|
--9----------------|--7-------------------5--|--L----------------|


  W                   W                   W                 
-------------------|-------------------|-------------------|
-------------------|-------------------|-------------------|
-------------------|-------------------|-------------------|
--L----------------|--7----------------|--8----------------|
--L----------------|--7----------------|--9----------------|
--L----------------|--7----------------|--8----------------|


  PM PM     PM          PM        PM             PM  PM          
  E  E   E  E   E    E  E   E     E   E  E  E    E   E   E   E   
-------------------------------|--------------------------------|
-------------------------------|--------------------------------|
-------------------------------|--------------------------------|
--------12-----11h--12-----12--|-----11-----------------14------|
-----9------9-----------9------|--9------9----------12------12--|
--9----------------------------|------------9s--11--------------|


   PM  PM      PM                                                      
   E   E   E   E   E    Q      E      E   E   E   E   E    E   E   E   
----------------------------------|-----------------------------------|
----------------------------------|-----------------------------------|
-----------------------------/14--|---L--12--11-----------------------|
----------16------14h--16---------|--------------14--12p--11----------|
------12------12------------------|---------------------------12--10--|
--12------------------------------|-----------------------------------|


  Q    H.              W                   W                 
--------------------|-------------------|-------------------|
--------------------|-------------------|-------------------|
--------------------|-------------------|-------------------|
-------5------------|--L----------------|--7----------------|
-------5------------|--L----------------|--7----------------|
-------5------------|--L----------------|--7----------------|


                                          PM PM  PM PM  PM PM  PM PM  
  W                   W                   E  E   E  E   E  E   E  E   
-------------------|-------------------|-----------------------------|
-------------------|-------------------|-----------------------------|
-------------------|-------------------|-----------------------------|
--5----------------|--4----------------|--------11-----11-----11-----|
--5----------------|--4----------------|-----9------9------9------9--|
--5----------------|--4----------------|--8--------------------------|


  W                   H        E   E   E  E     W                 
-------------------|-------------------------|-------------------|
-------------------|-------------------------|-------------------|
-------------------|-----------7p--6p--4-----|-------------------|
--9----------------|--7-------------------5--|--L----------------|
--9----------------|--7-------------------5--|--L----------------|
--9----------------|--7-------------------5--|--L----------------|


                      PM PM PM PM PM PM PM       PM PM PM PM PM PM PM     
  W                   E  E  E  E  E  E  E  E     E  E  E  E  E  E  E  E   
-------------------|--------------------------|--------------------------|
-------------------|--------------------------|--------------------------|
-------------------|--------------------------|--------------------------|
--L----------------|--7-----------------------|--8-----------------------|
--L----------------|--7-----------------------|--9-----------------------|
--L----------------|--7--7--7--7--7--7--7--7--|--8--8--8--8--8--8--8--8--|


  PM PM PM    PM    PM       PM PM PM    PM    PM     
  E  E  E  E  E  E  E  E     E  E  E  E  E  E  E  E   
--------------------------|--------------------------|
--------------------------|--------------------------|
--------------------------|--------------------------|
--------------------------|--------------------------|
-----------8-----7-----8--|-----------8-----7-----8--|
--0--0--0-----0-----0-----|--0--0--0-----0-----0-----|


  PM PM PM    PM    PM       PM PM PM     PM    PM     
  E  E  E  E  E  E  E  E     E  E  E   E  E  E  E  E   
--------------------------|---------------------------|
--------------------------|---------------------------|
--------------------------|---------------------------|
--------------------------|---------------------------|
-----------8-----7-----8--|-----------10-----8-----7--|
--5--5--5-----5-----5-----|--7--7--7------7-----7-----|


  PM PM PM    PM    PM       PM PM PM    PM    PM     
  E  E  E  E  E  E  E  E     E  E  E  E  E  E  E  E   
--------------------------|--------------------------|
--------------------------|--------------------------|
--------------------------|--------------------------|
--------------------------|--------------------------|
-----------8-----7-----8--|-----------8-----7-----8--|
--0--0--0-----0-----0-----|--0--0--0-----0-----0-----|


  PM PM PM    PM    PM       PM PM PM     PM    PM     
  E  E  E  E  E  E  E  E     E  E  E   E  E  E  E  E   
--------------------------|---------------------------|
--------------------------|---------------------------|
--------------------------|---------------------------|
--------------------------|---------------------------|
-----------8-----7-----8--|-----------10-----8-----7--|
--5--5--5-----5-----5-----|--7--7--7------7-----7-----|


  PM PM PM    PM    PM       PM PM PM    PM    PM     
  E  E  E  E  E  E  E  E     E  E  E  E  E  E  E  E   
--------------------------|--------------------------|
--------------------------|--------------------------|
--------------------------|--------------------------|
--------------------------|--------------------------|
-----------8-----7-----8--|-----------8-----7-----8--|
--0--0--0-----0-----0-----|--0--0--0-----0-----0-----|


  PM PM PM    PM    PM       PM PM                                 
                                           |---3---|   |---3---|   
  E  E  E  E  E  E  E  E     E  E  E   E   E   E   E   E   E   E   
--------------------------|---------------------------------------|
--------------------------|---------------------------------------|
--------------------------|---------------------------------------|
--------------------------|---------------10p--8p--7--------------|
-----------8-----7-----8--|--------7h--8--------------10p--8p--7--|
--5--5--5-----5-----5-----|--7--7---------------------------------|


  PM PM PM    PM    PM       PM PM PM    PM    PM     
  E  E  E  E  E  E  E  E     E  E  E  E  E  E  E  E   
--------------------------|--------------------------|
--------------------------|--------------------------|
--------------------------|--------------------------|
--------------------------|--------------------------|
-----------8-----7-----8--|-----------8-----7-----8--|
--0--0--0-----0-----0-----|--0--0--0-----0-----0-----|


  PM PM PM    PM    PM       PM PM                                 
                                           |---3---|   |---3---|   
  E  E  E  E  E  E  E  E     E  E  E   E   E   E   E   E   E   E   
--------------------------|---------------------------------------|
--------------------------|---------------------------------------|
--------------------------|---------------------------------------|
--------------------------|---------------10p--8p--7--------------|
-----------8-----7-----8--|--------7h--8--------------10p--8p--7--|
--5--5--5-----5-----5-----|--7--7---------------------------------|


    NH                                                            
    W                   Q    Q    Q    Q       W                  
--<>7----------------|----------------------|-------------------||
--<>7----------------|----------------------|-------------------||
--<>7----------------|----------------------|-------------------||
--<>7----------------|--8----3---------6----|--1----------------||
--<>7----------------|--8----3---------6----|--1----------------||
---------------------|--8----3---------6----|--1----------------||




Duration Legend
---------------
W - whole
H - half
Q - quarter
E - 8th
S - 16th
T - 32nd
X - 64th
. - note dotted
|-n-|  - n-tuplets


Tablature Legend
----------------
L - tied note
x - dead note
g - grace note
(n) - ghost note
> - accentuded note
NH - natural harmonic
AH - artificial harmonic
TH - tapped harmonic
SH - semi harmonic
PH - pitch harmonic
h - hammer on
p - pull off
b - bend
br - bendRelease
pb - preBend
pbr - preBendRelease
brb - bendReleaseBend
\n/ - tremolo bar dip
\n - tremolo bar dive
-/n - tremolo bar Release up
/n\ - tremolo bar inverted dip
/n - tremolo bar return
-\n - tremolo bar Release down
S - shift slide
s - legato slide
/ -  slide into from below or out of upwards
\ -  slide into from above or out of downwards
~ - vibrato
W - wide vibrato
tr - trill
TP - tremolo picking
T - tapping
S - slap
P - pop
< - fade in
^ - brush up
v - brush down
Suggest correction
Creating personal tab
Creating personal tab
You can edit any tab online and save it as your Personal.

You can edit, replace or remove any tab part or add personal notes – all changes will be seen only by you.

Personal tabs can be accessed anytime from any device, even offline.
Learn more »
Give kudos to tab author, rate the tab!
1 2 3 4 5
comments
print report bad tab
guest
Wanna post a correction for this tab? Suggest correction