Oops, an error
Loading. Please wait.

Family Show bass

by Deluxe
7 views 1 this week
no commentswrite comment
1 2 3 4 5
2 more votes to show rating
add to favorites
×
Save as Personal and add changes to this tab that will be seen only by you. Learn more ›
×
You can save this tab as Personal to edit and correct it or add notes. All changes will be seen only by you. Learn more »
launch autoscroll
font size
0
reset
guitar tuner
edit
Autoscroll
slow
fast
+/-
esc
set tempo
stop
Artist : Deluxe
Song : Family Show
Album : The Deluxe Family Show

[Intro]
G|--------------------------------|
D|--------------------------------|
A|--------------------------------|
E|4-r---x-4-r---x-4-r---x-4-r---x-|
  1   +   2   +   3   +   4   +    

[Chorus]
G|--------------------------------|--------------------------------|
D|--------------------------------|--------------------------------|
A|----------------------------2-r-|---/4---------------------------|
E|4-r---------2-----------4-------|--------------------------------|
  1   +   2   +   3   +   4   +    1   +   2   +   3   +   4   +    

G|--------------------------------|--------------------------------|
D|--------------------------------|--------------------------------|
A|--------------------------------|--------------------4---2h4-r---|
E|4-r---------2-------------------|--------------------------------|
  1   +   2   +   3   +   4   +    1   +   2   +   3   +   4   +    

G|--------------------------------|--------------------------------|
D|--------------------------------|--------------------------------|
A|----------------------------2-r-|---/4---------------------------|
E|4-r---------2-----------4-------|--------------------------------|
  1   +   2   +   3   +   4   +    1   +   2   +   3   +   4   +    

G|--------------------------------|--------------------------------|
D|--------------------------------|--------------------------------|
A|--------------------------------|--------------------------------|
E|4-r---------2-------------------|--------------------------------|
  1   +   2   +   3   +   4   +    1   +   2   +   3   +   4   +    

[Verse]
G|--------------------------------|--------------------------------|
D|--------------------------------|--------------------------------|
A|--------------------------------|--------------------------------| (x2)
E|4\--r-------2-------------------|--------------------------------|
  1   +   2   +   3   +   4   +    1   +   2   +   3   +   4   +    

G|--------------------------------|--------------------------------|
D|--------------------------------|--------------------------2-----|
A|--------------------------------|--------------------2-3-4---4---|
E|4\--r-------2-------------------|--------------------------------|
  1   +   2   +   3   +   4   +    1   +   2   +   3   +   4   +    

G|--------------------------------|--------------------------------|
D|--------------------------------|--------------------------------|
A|2-r---------4-------------------|--------------------6---\-------|
E|--------------------------------|--------------------------------|
  1   +   2   +   3   +   4   +    1   +   2   +   3   +   4   +    

G|--------------------------------|--------------------------------|
D|--------------------------------|--------------------------------|
A|--------------------------------|--------------------------------| (x2)
E|4\--r-------2-------------------|--------------------------------|
  1   +   2   +   3   +   4   +    1   +   2   +   3   +   4   +    

G|--------------------------------|--------------------------------|
D|--------------------------------|--------------------------2-----|
A|--------------------------------|--------------------2-3-4---4---|
E|4\--r-------2-------------------|--------------------------------|
  1   +   2   +   3   +   4   +    1   +   2   +   3   +   4   +    

G|--------------------------------|--------------------------------|
D|--------------------------------|--------------------------------|
A|2-r---------4-------------------|--------------------6---\-------|
E|--------------------------------|4-r---x-4-r---x-4-r-------------|
  1   +   2   +   3   +   4   +    1   +   2   +   3   +   4   +    

[Chorus]
G|--------------------------------|--------------------------------|
D|--------------------------------|--------------------------------|
A|----------------------------2-r-|---/4---------------------------|
E|4-r---------2-----------4-------|--------------------------------|
  1   +   2   +   3   +   4   +    1   +   2   +   3   +   4   +    

G|--------------------------------|--------------------------------|
D|--------------------------------|--------------------------------|
A|--------------------------------|--------------------4---2h4-r---|
E|4-r---------2-------------------|--------------------------------|
  1   +   2   +   3   +   4   +    1   +   2   +   3   +   4   +    

G|--------------------------------|--------------------------------|
D|--------------------------------|--------------------------------|
A|----------------------------2-r-|---/4---------------------------|
E|4-r---------2-----------4-------|--------------------------------|
  1   +   2   +   3   +   4   +    1   +   2   +   3   +   4   +    

G|--------------------------------|--------------------------------|--------------------------------|
D|--------------------------------|--------------------------------|--------------------------------|
A|--------------------------------|--------------------------------|--------------------------------|
E|4-r---------2-------------------|--------------------------------|--------------------------------|
  1   +   2   +   3   +   4   +    1   +   2   +   3   +   4   +    1   +   2   +   3   +   4   +    

[Verse]
G|--------------------------------|--------------------------------|
D|--------------------------------|--------------------------------|
A|--------------------------------|--------------------------------| (x2)
E|--------------------------------|--------------------------------|
  1   +   2   +   3   +   4   +    1   +   2   +   3   +   4   +    

G|--------------------------------|--------------------------------|
D|--------------------------------|--------------------------2-----|
A|--------------------------------|--------------------2-3-4---4---|
E|4\--r-------2-------------------|--------------------------------|
  1   +   2   +   3   +   4   +    1   +   2   +   3   +   4   +    

G|--------------------------------|--------------------------------|
D|--------------------------------|--------------------------------|
A|2-r---------4-------------------|--------------------6---\-------|
E|--------------------------------|--------------------------------|
  1   +   2   +   3   +   4   +    1   +   2   +   3   +   4   +    

G|--------------------------------|--------------------------------|
D|--------------------------------|--------------------------------|
A|--------------------------------|--------------------------------| (x2)
E|4\--r-------2-------------------|--------------------------------|
  1   +   2   +   3   +   4   +    1   +   2   +   3   +   4   +    

G|--------------------------------|--------------------------------|
D|--------------------------------|--------------------------2-----|
A|--------------------------------|--------------------2-3-4---4---|
E|4\--r-------2-------------------|--------------------------------|
  1   +   2   +   3   +   4   +    1   +   2   +   3   +   4   +    

G|--------------------------------|--------------------------------|
D|--------------------------------|--------------------------------|
A|2-r---------4-------------------|--------------------6---\-------|
E|--------------------------------|4-r---x-4-r---x-4---------------|
  1   +   2   +   3   +   4   +    1   +   2   +   3   +   4   +    

[Chorus]
G|--------------------------------|--------------------------------|
D|--------------------------------|--------------------------------|--|
A|----------------------------2-r-|---/4---------------------------|  |
E|4-r---------2-----------4-------|--------------------------------|  |
  1   +   2   +   3   +   4   +    1   +   2   +   3   +   4   +      |
                                                                      |
G|--------------------------------|--------------------------------|  |
D|--------------------------------|--------------------------------|  |
A|--------------------------------|--------------------4---2h4-r---|  |
E|4-r---------2-------------------|--------------------------------|  |
  1   +   2   +   3   +   4   +    1   +   2   +   3   +   4   +      | All (x2)
                                                                      |
G|--------------------------------|------------8-------6-----------|  |
D|--------------------------------|--------6---------------6-------|  |
A|----------------------------2-r-|---/4---------------------------|  |
E|4-r---------2-----------4-------|--------------------------------|  |
  1   +   2   +   3   +   4   +    1   +   2   +   3   +   4   +      |
                                                                      |
G|--------------------------------|--------------------------------|  |
D|--------------------------------|--------------------------------|  |
A|--------------------------------|--------------------------------|--|
E|4-r---------2-------------------|----------------------------11-\|
  1   +   2   +   3   +   4   +    1   +   2   +   3   +   4   +    

[Interlude]
G|--------------------------------|--------------------------------|
D|--------------------------------|--------------------------------|
A|--------------------------------|--------------------------------| (x4)
E|--------------------------------|--------------------------------|
  1   +   2   +   3   +   4   +    1   +   2   +   3   +   4   +    

[Chorus]
G|--------------------------------|--------------------------------|
D|--------------------------------|--------------------------------|--|
A|----------------------------2-r-|---/4---------------------------|  |
E|4-r---------2-----------4-------|--------------------------------|  |
  1   +   2   +   3   +   4   +    1   +   2   +   3   +   4   +      |
                                                                      |
G|--------------------------------|--------------------------------|  |
D|--------------------------------|--------------------------------|  |
A|--------------------------------|--------------------4---2h4-r---|  |
E|4-r---------2-------------------|--------------------------------|  |
  1   +   2   +   3   +   4   +    1   +   2   +   3   +   4   +      | All (x2) w/ fade out
                                                                      |
G|--------------------------------|------------8-------6-----------|  |
D|--------------------------------|--------6---------------6-\-----|  |
A|----------------------------2-r-|---/4---------------------------|  |
E|4-r---------2-----------4-------|--------------------------------|  |
  1   +   2   +   3   +   4   +    1   +   2   +   3   +   4   +      |
                                                                      |
G|--------------------------------|--------------------------------|  |
D|--------------------------------|--------------------------------|  |
A|--------------------------------|--------------------------------|--|
E|4-r---------2-------------------|-----------------------/13\-----|
  1   +   2   +   3   +   4   +    1   +   2   +   3   +   4   +    


************************************

| x   Dead note
| h   Hammer-on
| p   Pull-off
| r   Release
| /   Slide up
| \   Slide down

************************************
Suggest correction
Creating personal tab
Creating personal tab
You can edit any tab online and save it as your Personal.

You can edit, replace or remove any tab part or add personal notes – all changes will be seen only by you.

Personal tabs can be accessed anytime from any device, even offline.
Learn more »
Give kudos to tab author, rate the tab!
1 2 3 4 5
comments
print report bad tab
guest
You may want to rate the tab now too:
select rating
Wanna post a correction for this tab? Suggest correction