Oops, an error
Loading. Please wait.

Oh Oh Acoustic chords

by Deluxe
574 views 63 this week
no commentswrite comment
1 2 3 4 5
3 more votes to show rating
add to favorites
×
Save as Personal and add changes to this tab that will be seen only by you. Learn more ›
×
You can save this tab as Personal to edit and correct it or add notes. All changes will be seen only by you. Learn more »
launch autoscroll
font size
0
reset
transpose
0
reset
display chords
guitar tuner
edit
Autoscroll
slow
fast
+/-
esc
set tempo
stop
Strumming Is this strumming pattern correct? Yes No
120 bpm
1
&
2
&
3
&
4
&
5
&
Listen
Acoustic version - https://www.youtube.com/watch?v=PQS5GlWWZ_Y

You can use a capo on 9 and play with Am Bm C D but you should use these chords to get the sound right:

  F#m  G#m   A    B
e|-9----11---12---15|
B|-10---12---14---17|
G|-11---13---14---17|
D|-11---13---14---17|
A|-9----11---12---15|
E|-9----11---12---15|

[Intro]

e|----------9--------------11------------12--------------15-----|
B|----------10-------------12------------14--------------17-----|
G|--------------------------------------------------------------|
D|------11-------------13--------------14------------17---------|
A|---9----------9--11----------11--12--------12--15----------15-|
E|--------------------------------------------------------------|

F#m G#m
F#m G#m
   F#m     G#m
Hmmm... Hmmm...
   F#m     G#m
Hmmm... Hmmm...

[Verse]
          F#m     
It's been weeks or years or two days
     G#m
Since I last gave a care
      F#m
About music, food or duces
   G#m
No love is in my air
     F#m
It's depth and hue confuses
   G#m
My plan to grow a pair
F#m
Something's way more juicy
   G#m
My dove cocotuw bear
       F#m
I'll embrace his purple bruises
       G#m
Pick a scab to chew
        F#m
Catch a lash and sweep
      G#m
Every lock of his do
               F#m
I really don't mind 'bout who says
           G#m
I'm skipping class just to

e|----------9--------------11------------12--------------15-----|
B|----------10-------------12------------14--------------17-----|
G|--------------------------------------------------------------|
D|------11-------------13--------------14------------17---------|
A|---9----------9--11----------11--12--------12--15----------15-|
E|--------------------------------------------------------------|
   Look at  how   he   sleeps and dive  into   his pool.....
  
[Chorus]
   F#m      G#m
Oh oh, oh oh
   F#m      G#m
Oh oh, oh oh
   F#m      G#m
Oh oh, oh oh

e|----------9--------------11------------12--------------15-----|
B|----------10-------------12------------14--------------17-----|
G|--------------------------------------------------------------|
D|------11-------------13--------------14------------17---------|
A|---9----------9--11----------11--12--------12--15----------15-|
E|--------------------------------------------------------------|
     Oh     oh, oh       oh

[Verse]
                     F#m
It's been sweet and brutal long plays
         G#m
Since I last had the will
        F#m
To grow out of this clumsy
     G#m
Epidermal thrill
         F#m
Hexed and breathless lousy
     G#m
Lost in my despair
        F#m
Can't shake of this itching
     G#m
Need to teeth and tear
         F#m
His flesh and nurse my hungry
          G#m
Compulsion back to health
     F#m
Dripping dove you're pale see
     G#m
Skin so usually fair
         F#m
Doctor here's my love he
      G#m
Cold, can you repair

e|----------9--------------11------------12--------------15-----|
B|----------10-------------12------------14--------------17-----|
G|--------------------------------------------------------------|
D|------11-------------13--------------14------------17---------|
A|---9----------9--11----------11--12--------12--15----------15-|
E|--------------------------------------------------------------|
The bites have left him empty.... silently   he   stares....

[Chorus]
   F#m      G#m
Oh oh, oh oh
   F#m      G#m
Oh oh, oh oh
   F#m      G#m
Oh oh, oh oh

e|----------9--------------11------------12--------------15-----|
B|----------10-------------12------------14--------------17-----|
G|--------------------------------------------------------------|
D|------11-------------13--------------14------------17---------|
A|---9----------9--11----------11--12--------12--15----------15-|
E|--------------------------------------------------------------|
     Oh     oh, oh       oh    Oh        oh, oh         oh.... 

[Outro]
F#m G#m
                 F#m     G#m
Even when he not there
                 F#m     G#m
Even when he not there
            e|----------9--------------11------------12--------------15-----|
            B|----------10-------------12------------14--------------17-----|
            G|--------------------------------------------------------------|
            D|------11-------------13--------------14------------17---------|
            A|---9----------9--11----------11--12--------12--15----------15-|
            E|--------------------------------------------------------------|
Even when he not there,        there,          there
N.C
Even when he not there

            
            
Suggest correction
Creating personal tab
Creating personal tab
You can edit any tab online and save it as your Personal.

You can edit, replace or remove any tab part or add personal notes – all changes will be seen only by you.

Personal tabs can be accessed anytime from any device, even offline.
Learn more »
Give kudos to tab author, rate the tab!
1 2 3 4 5
comments
print report bad tab
guest
You may want to rate the tab now too:
select rating
Wanna post a correction for this tab? Suggest correction