Oops, an error
Loading. Please wait.

Pony bass

version 1
version 1

Whole song

  • This is the only bass tab of the song created. I m... Show more

Interactive

by Deluxe
79 views 3 this week
no commentswrite comment
1 2 3 4 5
2 more votes to show rating
add to favorites
×
Save as Personal and add changes to this tab that will be seen only by you. Learn more ›
×
You can save this tab as Personal to edit and correct it or add notes. All changes will be seen only by you. Learn more »
launch autoscroll
font size
0
reset
guitar tuner
edit
Autoscroll
slow
fast
+/-
esc
set tempo
stop
About this tab version
This is the only bass tab of the song created. I made sure to add in all of the fills that are in the song with the proper timestamp of the awkward changes. Was this info helpful? Yes No
This song is mostly done with a synth bass. Using an octave pedal for a sub
sound should do the trick.

[Intro]
(No Bass is present in this part of the song.)

[Verse] 
(1st Bass Part)
(0:19)                 (0:24)              
G|------------------|-------------------|
D|------------------|-------------------|
A|-1----------------|-1-----------------|
E|----4-2--4-2--4-1-|---4-2--4-2--4-1-5-|(x2)

[Second time ends like this]
G|----------------------|
D|----------------------|
A|-1--------------------|
E|---4-2--4-2--4-1/13\--|
^the slide replaces the E---5----|

[Verse]
(0:56)
G|------------------|-------------------|
D|------------------|-------------------|
A|-1----------------|-1-----------------|
E|----4-2--4-2--4-1-|---4-2--4-2--4-1-5-|(x2)

[Second time ends like this]
G|----------------------|
D|----------------------|
A|-1--------------------|
E|---4-2--4-2--4-1/13\--|
^the slide replaces the E---5----|

(1:15)
G|------------------|-------------|
D|------------------|-------------|
A|-1----------------|-1-----------|
E|----4-2--4-2--4-1-|---4-2--4-2--|

(1:24)
G|------------------|-------------------|
D|------------------|-------------------|
A|-1----------------|-1-----------------|
E|----4-2--4-2--4-1-|---4-2--4-2--4-1---|(x2)

[Second time ends like this]
G|----------------------|
D|----------------------|
A|-1--------------------|
E|---4-2--4-2--4-1/13\--|
^the slide replaces the E---5----|
 
[Horns Solos]
(No Bass)
(2:10)
G|-----------------|---------------|-------------|----------------|
D|-----------------|---------------|-----------3-|----------------|
A|-----1------3----|-1-------------|-1-----3-----|-1--------------|
E|-13\----4-2---1--|----2--2--1/9\-|---2-4---1---|---2-2/12b14----|

[Chorus]
(2:29)
G|------------------|-------------------|
D|------------------|-------------------|
A|-1----------------|-1-----------------|
E|----4-2--4-2--4-1-|---4-2--4-2--4-1-5-|(x2)

[Horns Solo/Outro]
G|------------------|-------------------|
D|------------------|-------------------|
A|-1----------------|-1-----------------|
E|----4-2--4-2--4-1-|---4-2--4-2--4-1-5-|

G|------------------|-------------------|
D|------------------|-------------------|
A|-1----------------|-1-----------------|
E|----4-2--4-2--4-1-|---4-2-------------|

G|------|------------------|-------------------|
D|------|------------------|-------------------|
A|------|-1----------------|-1-----------------|
E|-1-4--|----4-2--4-2--4-1-|---4-2--4-2--4-1-5-|

G|------------------|-------------------|
D|------------------|-------------------|
A|-1----------------|-1-----------------|
E|----4-2--4-2--4-1-|---4-2--4-2--4-1-5-|


************************************

| b   Bend
| /   Slide up
| \   Slide down

************************************

            
            
Suggest correction
Creating personal tab
Creating personal tab
You can edit any tab online and save it as your Personal.

You can edit, replace or remove any tab part or add personal notes – all changes will be seen only by you.

Personal tabs can be accessed anytime from any device, even offline.
Learn more »
Give kudos to tab author, rate the tab!
1 2 3 4 5
comments
print report bad tab
guest
You may want to rate the tab now too:
select rating
Wanna post a correction for this tab? Suggest correction