Oops, an error
Loading. Please wait.

Surf Ride To Oblivion Bass Tab

version 1
version 1

Whole song

Interactive

2,278 views 6 this week
no commentswrite comment
1 2 3 4 5
please rate
add to favorites
launch autoscroll
font size
0
reset
guitar tuner
Autoscroll
slow
fast
+/-
esc
set tempo
stop
Help us to improve Ultimate-Guitar.com Take our survey!
×
Author
Difficulty
intermediate
                 SURF RIDE TO OBLIVION BY DEMENTED ARE GO!

THIS TAB IS FOR AN UPRIGHT BUT U CAN STILL USE AN ELECTRIC, IT WONT BE AS GOOD THOUGH.

 INTRO:

 G---------------------------------------|
 D--------------------------2-0----------|
 A-0X-0X-0X--3X-3X-3X------------3-2-----|
 E---------------------3X-3X-3X----------|

 G------------------------|
 D-------------2-0--------|
 A-0-0-3-3---------3-2----|
 E---------3-3------------|

 X=TRIPLET

 WHEN STRANGY STARTS SINGING INSTED OF TRIPLETS YOU PLAY DOUBLES.
Suggest correction
Give kudos to tab author, rate the tab!
1 2 3 4 5
comments
print report bad tab
guest
You may want to rate the tab now too:
select rating
Please do not post tabs as comments. Select "correction" instead!