Oops, an error
Loading. Please wait.

Back Around Tab

1,235 views 1 this week
no commentswrite comment
1 2 3 4 5
excellent!
x 1
add to favorites
launch autoscroll
font size
0
reset
how to read this tab
guitar tuner
Tab Pro tools
  • play this tab
  • loop segment
  • change instrument
  • show fretboard
  • metronome
Autoscroll
slow
fast
+/-
esc
set tempo
stop
Contributor
Difficulty
novice
Well, this is my first tab. I love this song and I watch some videos in Youtube..
so here is the tab. I'm not 100% sure, but it's pretty close!

/ = Slide
. = Palm Mute


INTRO: [x4]

1|-------------------------------------|
2|-------------------------------------|
3|--99-9---33-3---1212-12---77-7-------|
4|--99-9---33-3---1212-12---77-7-------|
5|--77-7---55-5---1010-10---55-5-------|
6|-------------------------------------|


VERSE:
                                                     
1|--------------------------------------------------|
2|--------------------------------------------------|
3|-99-9-99-9---99-9-99-9---------------55-5-55-5----| x2
4|-99-9-99-9---99-9-99-9---55-5-55-5---55-5-55-5----|
5|-77-7-77-7---66-6-66-6---55-5-55-5---33-3-33-3----|
6|-------------------------33-3-33-3----------------|
   ..   ..     ..   ..     ..   ..     ..   ..       -

1|--------------------------------------------------|
2|--------------------------------------------------|
3|-99-9-99-9---77-7-77-7---------------55-5-55-5----|
4|-99-9-99-9---77-7-77-7---55-5-55-5---55-5-55-5----|
5|-77-7-77-7---55-5-55-5---55-5-55-5---33-3-33-3----|
6|-------------------------33-3-33-3----------------|
   ..   ..     ..   ..     ..   ..     ..   ..

1|--------------------------------------------------|
2|--------------------------------------------------|
3|-99-9-99-9---77-7-77-7---------------5/-----------|
4|-99-9-99-9---77-7-77-7---55-5-55-5---5/-----------|
5|-77-7-77-7---55-5-55-5---55-5-55-5---3/-----------|
6|-------------------------33-3-33-3----------------|
   ..   ..     ..   ..     ..   ..


CHORUS:

Part #1                                                    -
1|--------------------------------------------------|
2|--------------------------------------------------|
3|-99999999--33333333------------77777777--88/99----|
4|-99999999--33333333--33333333--77777777--88/99----| x3
5|-77777777--55555555--33333333--55555555--66/77----|
6|---------------------55555555---------------------|
                                                    
Part #2
1|--------------------------------------------------|
2|--------------------------------------------------|
3|--------------------------------------------------|
4|-7777--10101010-----------------------------------| x2
5|-7777--10101010-----------------------------------|
6|-5555---8-8-8-8-----------------------------------|
                                                    

INTRO: (same) x2

VERSE: (same)

CHORUS: (same)


INTERLUDIO: x2

1|---------------|
2|---------------|
3|-3--5--9--10---|
4|-3--5--9--10---|
5|-5--7--7---8---|
6|---------------|


BUILD UP:

1|---------------------------------|------------------------------|
2|---------------------------------|------------------------------|
3|-------------------------555555--|--------------------------55/-|
4|-999999--777777--555555--555555--|--999999--777777--555555--55/-|
5|-999999--777777--555555--333333--|--999999--777777--555555--33/-|
6|-777777--555555--333333----------|--777777--555555--333333------|
   ......  ......  ......  ......     ......  ......  ......


CHORUS: (Part #1 x5) (Part #2 x 4)

End with:

1|---------------|
2|---------------|
3|-9--7--5--7----|
4|-9--7--5--7----|
5|-7--5--3--5----|
6|---------------|


INTRO: (same) x1
comments
We did not receive enough feedback on this tab! Please rate:
print report bad tab
1 2 3 4 5
I want to post or [tab]
guest
You may want to rate the tab now too:
select rating
Please do not post tabs as comments. Select "correction" instead!