Oops, an error
Loading. Please wait.

Behind Enemy Lines Tab

version 1
version 1

Whole song

9,057 views 1 this week
1 commentread comment
1 2 3 4 5
accurate
x 3
add to favorites
launch autoscroll
font size
0
reset
how to read this tab
guitar tuner
Autoscroll
slow
fast
+/-
esc
set tempo
stop
Help us to improve Ultimate-Guitar.com Take our survey!
×
Author
BEHIND ENEMY LINES by Demi Lovato

omg. this is my VERY first tab. im not sure if its correct. it sounds exact, but 
i just learned it by ear.

Intro x1

e|---------------------------|---------------------------|
B|--------5-5---------5-5----|------5-5--------5-5-------|
G|--------5-5---------5-5----|------5-5--------5-5-------|
D|---------------------------|---------------------------|
A|----5-5---------5-5--------|---------------------------|
E|---------------------------|--5-5--------5-5-----------|

Verse x3

        
e|---------------------------|---------------------------|
B|----5-5---------5-5--------|--5-5--------5-5-----------|
G|----5-5---------5-5--------|--5-5--------5-5-----------|
D|---------------------------|---------------------------|
A|----5-5---------5-5--------|---------------------------|
E|---------------------------|--5-5--------5-5-----------|

Chorus x3

  
e|---------------------------|---------------------------|
B|----4--------------5-------|-----5-----------5---------|
G|----7--------------4-------|-----5-----------5---------|
D|----7----------------------|---------------------------|
A|----5----------------------|-----5---------------------|
E|-------------------3-------|-----------------5---------|


Verse x3

Chorus (rest of the song)
Suggest correction
What's this?
You can suggest a correction to this tab. Community and Mods will review your correction and vote to approve or reject it.
comments
We did not receive enough feedback on this tab! Please rate:
print report bad tab
1 2 3 4 5
1 comment total.
0 reply
HannahMusicDork 54 wrote on April 15 2009, 02:56 pm

i think the intro and verse are alright the chorus sounds a bit weird
but good for your 1st :)

guest
You may want to rate the tab now too:
select rating
Please do not post tabs as comments. Select "correction" instead!