Oops, an error
Loading. Please wait.

Catch Me Tab

version 1
version 1

Whole song

Interactive

279,160 views 108 this week
14 commentsread comments
1 2 3 4 5
x 80
add to favorites
launch autoscroll
font size
0
reset
how to read this tab
guitar tuner
Autoscroll
slow
fast
+/-
esc
set tempo
stop
Help us to improve Ultimate-Guitar.com Take our survey!
×
Author
I broke the song down into parts. The sequence is down there VV
This is my first tab, so sorry if I made it confusing. haha.
If you have any questions, comment my YouTube video! :)
http://www.youtube.com/watch?v=3XmPJD-vnwI


[Verse]

1)Verse Part One
(Before I fall...)
(Keep it sweet...)
(See this heart...)
(Run far away...)
e|--------------------------------------------|
B|----9---9---9---9----9---9---9---9----------|
G|----9---9---9---9----9---9---9---9----------|
D|--7---7---7---7-----------------------------|    2x
A|-------------------7---7---7---7------------|
E|--------------------------------------------|


2)Verse Part Two
(So I can see...)
(But tonight...)
(I'm terrified...)
(But I can't get...)
e|---------------------------------------------------------------|
B|----5---5---5---5---4---4---4---4---0---0---0---0---0---0---0--|
G|----6---6---6---6---4---4---4---4---6---6---6---6---8---8---8--|
D|----6---6---6---6---4---4---4---4---7---7---7---7---9---9---9--|
A|--4---4---4---4------------------------------------------------|
E|------------------4---4---4---4---5---5---5---5---7---7---7---7|



[Chorus]
(You're so hypnotizing...)
e|-------------------------------------||
B|-----------------------0---0---0---0-||
G|-----0---0---0---0-----9---9---9---9-||
D|-----6---6---8---8-----9---9---9---9-|| Repeat, but instead of x6990x,  
A|-----7---7---9---9---7---7---6---6---|| end with x7990x            2x
E|---5---5---7---7---------------------||


[Bridge]

(Now you see...)
e|-------------------------------------------------|
B|----5---5---5---5---0---0---0---0---0---0---0---9|
G|----6---6---6---6---8---8---8---6---9---9---9---9|
D|----6---6---6---6---9---9---9---7---9---9---9---9|
A|--4---4---4---4-------------------7---7---6---6--|
E|------------------7---7---7---7------------------|

(...a care. So here I go...)
e|-------------------------------------------------|
B|---0---0---0---0---0---0---0---0---4---4---4---4-|
G|---6---6---6---6---6---6---6---6---4---4---4---4-|
D|---7---7---7---7---7---7---7---7---4---4---4---4-|
A|-------------------------------------------------|
E|-5---5---5---5---5---5---5---5---4---4---4---4---|

(And for the first...)
e|------------------|
B|---0---0---0---0--|
G|---6---6---6---6--|
D|---7---7---7---7--|
A|------------------|
E|-5---5---5---5---7|


[Chorus] (v. 2)

(But you're so hypnotizing...)
e|------0---------0---------0------0-------0-------0---0-------|
B|------0---------0---------0------0-------0-------0---0-------|
G|---6--6------8--8------9--9---9--9----6--6----8--8---9-------|
D|-----------------------------------------------------9-------|
A|--------------------7--------6-----------------------7-------|
E|-5--------7-------------------------5-------7----------------|


[Chorus] (v. 3)

(And I can see this unraveling...)
e|-0---0---0---0---0---0---0---0---0---0-|
B|-0---0---0---0---0---0---5---0---0---0-|
G|-6---8---9---9---6---8---6---6---8---9-|
D|-7---9---9---9---7---9---6---7---9---9-|
A|-7---9---7---6---7---9---4---7---9---7-|
E|-5---7-----------5---7-------5---7-----|


Verse Part one
Verse Part two
Verse Part one
Veres Part two
[Chorus]
Verse Part one
Verse Part two
Verse Part one
Verse Part two
[Chorus]
[Bridge]
Chorus (v. 2)
Chorus (v. 3)
Suggest correction
comments
print report bad tab
14 comments total. Showing first comments.
+2 reply
musicsinmysoul7 20 Jul 03, 2009 01:40 PM

i havent tried it out yet, but i just wanted to say THANK YOU SOOOO MUCH IVE BEEN DYING WAITING FOR SOMEONE TO PUT IT UP HERE! THANKYOUUUU! :)

im sure its good though, from what i see it looks pretty accurate :D ill give it a try and let you know for sure though.

and the way you set it up is very easy considering the way its played :) thankks again!

+18 reply
mec621 61 Jul 03, 2009 06:28 PM

very nicely tabbed. im pretty sure the chorus is played like this though

(You're so hypnotizing...)
e|-------------------------------------||
B|-----0---0---0---0-----0---0---0---0-||
G|-----6---6---8---8-----9---9---9---9-||
D|-----7---7---9---9-----9---9---9---9-||
A|---------------------7---7---6---6---|| end with x7990x
E|---5---5---7---7---------------------||

+3 reply
angietet93 10 Jul 06, 2009 04:42 PM

I also haven't even tried it yet, but I just wanted to thank you! I've been waiting for this tab for a while now, and I'm not at the transcribing level yet, so...THANK YOU!!

guest
You may want to rate the tab now too:
select rating
Wanna post a correction for this tab? Suggest correction