Oops, an error
Loading. Please wait.

Catch Me Tab

version 3
version 3

Whole song

Interactive

17,397 views 21 this week
no commentswrite comment
1 2 3 4 5
excellent!
x 14
add to favorites
launch autoscroll
font size
0
reset
how to read this tab
guitar tuner
Tab Pro tools
  • play this tab
  • loop segment
  • change instrument
  • show fretboard
  • metronome
×
Best way to learn
"Catch Me"
Autoscroll
slow
fast
+/-
esc
set tempo
stop
Contributor
This is my first tab. I basically took parts from one tab and another and put them 
together and felt this was easier. 

info:
no capo.
x's are slaps

Verse 1: 
Before I fall too fast kiss me quick, but make it last.
e|------------------------------------|
B|----9---9---9---9----9---9---9---9--|
G|----9---9---9---9----9---9---9---9--|x2
D|--7---7---7---7---------------------|
A|-------------------7---7---7---7----|
E|------------------------------------|

So I can see how badly this will hurt me when you say goodbye.
e|-------------------------------------------------------------------------|
B|----5---5---5---5---4---4---4---4----------------------------------------|
G|----6---6---6---6---4---4---4---4---6---6---6---6---8---8---8------------|
D|----6---6---6---6---4---4---4---4---7---7---7---7---9---9---9------------|
A|--4---4---4---4----------------------------------------------------------|
E|------------------4---4---4---4---5---5---5---5---7---7---7---7----------|
Keep it sweet, keep it slow. Let the future pass and don't let go.
e|------------------------------------|
B|----9---9---9---9----9---9---9---9--|
G|----9---9---9---9----9---9---9---9--|x2
D|--7---7---7---7---------------------|
A|-------------------7---7---7---7----|
E|------------------------------------|

But tonight I could fall too soon under this beautiful moonlight.
e|-------------------------------------------------------------------------|
B|----5---5---5---5---4---4---4---4----------------------------------------|
G|----6---6---6---6---4---4---4---4---6---6---6---6---8---8---8------------|
D|----6---6---6---6---4---4---4---4---7---7---7---7---9---9---9------------|
A|--4---4---4---4----------------------------------------------------------|
E|------------------4---4---4---4---5---5---5---5---7---7---7---7----------|

Chorus:
But you're so hypnotizing. You've got me laughing while I sing. 
You've got me smiling in my sleep. And I can see this unraveling. 
Your love is where I'm falling, but please don't catch me.
e|-------------------------------------------------------------------------|
B|-------------------------------------------------------------------------|
G|--6---6---8---8----9---9---8---8---6---6---8---8----9---9---9---9--------|
D|--7---7---9---9----9---9---9---9---7---7---9---9----9---9---9---9--------| x2
A|-----------------7---7----------------------------7---7---7---7----------|
E|-5---5---7---7------------7--7----5---5---7---7--------------------------|

Verse 2:
See this heart won't settle down. Like a child running scared from a clown.
e|------------------------------------|
B|----9---9---9---9----9---9---9---9--|
G|----9---9---9---9----9---9---9---9--|
D|--7---7---7---7---------------------| x2
A|-------------------7---7---7---7----|
E|------------------------------------|

I'm terrified of what you do, my stomach screams just when I look at you.
e|-------------------------------------------------------------------------|
B|----5---5---5---5---4---4---4---4----------------------------------------|
G|----6---6---6---6---4---4---4---4---6---6---6---6---8---8---8------------|
D|----6---6---6---6---4---4---4---4---7---7---7---7---9---9---9------------|
A|--4---4---4---4----------------------------------------------------------|
E|------------------4---4---4---4---5---5---5---5---7---7---7---7----------|


Run far away so I can breathe. Even though you're far from suffocating me.
e|------------------------------------|
B|----9---9---9---9----9---9---9---9--|
G|----9---9---9---9----9---9---9---9--|
D|--7---7---7---7---------------------| x2
A|-------------------7---7---7---7----|
E|------------------------------------|

I can't set my hopes too high cause every hello ends with a goodbye.
e|-------------------------------------------------------------------------|
B|----5---5---5---5---4---4---4---4----------------------------------------|
G|----6---6---6---6---4---4---4---4---6---6---6---6---8---8---8------------|
D|----6---6---6---6---4---4---4---4---7---7---7---7---9---9---9------------|
A|--4---4---4---4----------------------------------------------------------|
E|------------------4---4---4---4---5---5---5---5---7---7---7---7----------|

But you're so hypnotizing. You've got me laughing while I sing. 
You've got me smiling in my sleep. And I can see this unraveling. 
Your love is where I'm falling, but please don't catch me.
e|-------------------------------------------------------------------------|
B|-------------------------------------------------------------------------|
G|--6---6---8---8----9---9---8---8---6---6---8---8----9---9---9---9--------|
D|--7---7---9---9----9---9---9---9---7---7---9---9----9---9---9---9--------| x2
A|-----------------7---7----------------------------7---7---7---7----------|
E|-5---5---7---7------------7--7----5---5---7---7--------------------------|

Bridge:
So now you see why I'm scared. I can open up my heart without a care.
e|-------------------------------------------------------------------------|
B|-------------------------------------------------------------------------|
G|----9---9---9---9---8---8---8---8---9---9---8---8---6---6---6---6--------|
D|----9---9---9---9---9---9---9---9---9---9---9---9---7---7---7---7--------|
A|----------------------------------7---7----------------------------------|
E|--9---9---9---9---7---7---6---6-----------7---7---5---5---5---5----------|

But here I go, it's what I feel. And for the first time in my life I know it's real.
e|-------------------------------------------------------------------------|
B|-------------------------------------------------------------------------|
G|----2---2---2---2---4---4---4---4---6---6---6---6---8~-------------------|
D|----2---2---2---2---4---4---4---4---7---7---7---7---9~-------------------|
A|-------------------------------------------------------------------------|
E|--2---2---2---2---4---4---4---4---5---5---5---5-----7~-------------------|

But you're so hypnotizing. You've got me laughing while i sing, 
You've got me smiling in my ...
e|-------x----------x-----------x-----------x-----------x----------x--------|
B|-------x----------x-----------x-----------x-----------x----------x--------|
G|-----6-x-6------8-x-8-------9-x-9-------8-x-8-------6-x-6------8-x-8------|
D|---7---x-7----9---x-9-----9---x-9-----9---x-9-----7---x-7----9---x-9------|
A|-------x----------x-----7-----x-7---------x-7---------x----------x--------|
E|-5-----x-5---7----x-7---------x-----7-----x-----5-----x-5---7----x-7------|
 
Chorus:
sleep. 
e|-0-0-0-0-0-0-0-0---|
B|-0-0-0-0-0-0-0-0---|
G|-9-9-9-9-9-9-9-9---|
D|-9-9-9-9-9-9-9-9---|
A|-7-7-7-7-7-7-7-7---|
E|-------------------|

And I can see this unraveling, your love is where I'm falling so please don't catch me. 
If this is love please don't break me.
e|-0-0-0-0---0-0-0-0---0-0-0-0---0-0-0-0---|    
B|-0-0-0-0---0-0-0-0---5-5-5-5---0-0-0-0---|    
G|-6-6-6-6---8-8-8-8---6-6-6-6---4-4-4-4---|    
D|-7-7-7-7---9-9-9-9---6-6-6-6---4-4-4-4---| x3 
A|-7-7-7-7---9-9-9-9---4-4-4-4---2-2-2-2---|    
E|-5-5-5-5---7-7-7-7-----------------------|    

Outro:
I'm giving up, so just catch me.
e|--0~--0~--0~--|
B|--0~--0~--0~--|
G|--6~--8~--9~--|
D|--7~--9~--9~--|
A|--7~--9~--7~--|
E|--5~--7~------|
comments
print report bad tab
I want to post or [tab]
guest
You may want to rate the tab now too:
select rating
Please do not post tabs as comments. Select "correction" instead!