Oops, an error
Loading. Please wait.

Catch Me Tab

version 4
version 4

Whole song

Interactive

9,649 views 9 this week
1 commentread comment
1 2 3 4 5
excellent!
x 4
add to favorites
launch autoscroll
font size
0
reset
how to read this tab
guitar tuner
Tab Pro tools
  • play this tab
  • loop segment
  • change instrument
  • show fretboard
  • metronome
×
Best way to learn
"Catch Me"
Autoscroll
slow
fast
+/-
esc
set tempo
stop
Soo.. This is my first tab.. It seems perfect, I think. I got it off of this youtube 
video: http://www.youtube.com/watch?v=w40D4TxfY6Q&feature=related  In the other tabs I got 
really confused and I'm really picky :P

Catch Me By; Demi Lovato
Tuning: Standard eBGDAE



Before I fall, too fast. Kiss me quick, but make it last.
|--------------------------------------------|
|----9---9---9---9----9---9---9---9----------|
|----9---9---9---9----9---9---9---9----------|
|--7---7---7---7-----------------------------|    2x
|-------------------7---7---7---7------------|
|--------------------------------------------|

So I can see how badly this will hurt me, when you say good-bye
|---------------------------------------------------------------|
|----5---5---5---5----------------------------------------------|
|----6---6---6---6---4---4---4---4---6---6---6---6---8---8---8--|
|--------------------4---4---4---4---7---7---7---7---9---9---9--|
|--4---4---4---4------------------------------------------------|
|------------------4---4---4---4---5---5---5---5---7---7---7---7|

Keep it sweet, keep it slow. Let the future pass, and don't let go.
|--------------------------------------------|
|----9---9---9---9----9---9---9---9----------|
|----9---9---9---9----9---9---9---9----------|
|--7---7---7---7-----------------------------|    2x
|-------------------7---7---7---7------------|
|--------------------------------------------|

But tonight I could fall too soon under this beautiful, moonlight.
|---------------------------------------------------------------|
|----5---5---5---5----------------------------------------------|
|----6---6---6---6---4---4---4---4---6---6---6---6---8---8---8--|
|--------------------4---4---4---4---7---7---7---7---9---9---9--|
|--4---4---4---4------------------------------------------------|
|------------------4---4---4---4---5---5---5---5---7---7---7---7|

But you're so hypnotizing, you got me laughing while I sing you've got me smiling while 
I sleep
|--------------------------------------------------------------|
|--------------------------------------------------------------|
|----7--7---9---9-----9---9---8---8---6---6---8---8-----9---9--|
|----6--6---8---8-----9---9---9---9---7---7---9---9-----9---9--|
|-------------------7---7-----------------------------7---7----|
|--5---5---7---7------------7---7---5---5---7---7--------------|

And I can see this unraveling your love is where I'm falling so please don't catch me.
|--------------------------------------------------------------------|
|--------------------------------------------------------------------|
|----6---6---8---8---8-----9---9---8---8---6---6---8---8---9---9-----|
|----7---7---9---9---9-----9---9---9---9---7---7---9---9---9---9-----|
|------------------------7---7---------------------------7---7-------|
|--5---5---7---7---7-------------7---7---5---5---7---7---------------|

See this heart, won't settle down. Like a child running scared from a clown
|--------------------------------------------|
|----9---9---9---9----9---9---9---9----------|
|----9---9---9---9----9---9---9---9----------|
|--7---7---7---7-----------------------------|    2x
|-------------------7---7---7---7------------|
|--------------------------------------------|

I'm terrified of what you do my stomach screams just when I look at you.
|---------------------------------------------------------------|
|----5---5---5---5----------------------------------------------|
|----6---6---6---6---4---4---4---4---6---6---6---6---8---8---8--|
|--------------------4---4---4---4---7---7---7---7---9---9---9--|
|--4---4---4---4------------------------------------------------|
|------------------4---4---4---4---5---5---5---5---7---7---7---7|

Run far away, so I can breath. Even though your far from suffocating me.
|--------------------------------------------|
|----9---9---9---9----9---9---9---9----------|
|----9---9---9---9----9---9---9---9----------|
|--7---7---7---7-----------------------------|    2x
|-------------------7---7---7---7------------|
|--------------------------------------------|

I can't set my hope too high 'cause every hello ends with a good-bye
|---------------------------------------------------------------|
|----5---5---5---5----------------------------------------------|
|----6---6---6---6---4---4---4---4---6---6---6---6---8---8---8--|
|--------------------4---4---4---4---7---7---7---7---9---9---9--|
|--4---4---4---4------------------------------------------------|
|------------------4---4---4---4---5---5---5---5---7---7---7---7|

But you're so hypnotizing, you've got me laughing while i sing you've got me smiling in 
my sleep
|--------------------------------------------------------------|
|--------------------------------------------------------------|
|----7--7---9---9-----9---9---8---8---6---6---8---8-----9---9--|
|----6--6---8---8-----9---9---9---9---7---7---9---9-----9---9--|
|-------------------7---7-----------------------------7---7----|
|--5---5---7---7------------7---7---5---5---7---7--------------|

And I can see this unraveling your love is where I'm falling so please don't catch me.
|--------------------------------------------------------------------|
|--------------------------------------------------------------------|
|----6---6---8---8---8-----9---9---8---8---6---6---8---8---9---9-----|
|----7---7---9---9---9-----9---9---9---9---7---7---9---9---9---9-----|
|------------------------7---7---------------------------7---7-------|
|--5---5---7---7---7-------------7---7---5---5---7---7---------------|

So now you see, why I'm scared I can't open up my heart without a care
|-----------------------------------------------------------|
|-----------------------------------------------------------|
|----7---7---7---7---8---8----8---8--7---7---8---8---6---6--|
|----7---7---7---7---9---9---10--10--7---7---9---9---7---7--|
|-----------------------------------------------------------|
|--7---7---7---7---7---7---8---8---7---7---7---7---5---5----|

But here I go, it's what I feel. And in the first time in my life I know it's real.
|-------------------------------------------------------|
|-------------------------------------------------------|
|----2---2---2---2---4---4---4---4---5---5---5---5------|
|----2---2---2---2---4---4---4---4---5---5---5---5------|
|-------------------------------------------------------|
|--2---2---2---2---4---4---4---4---5---5---5---5---5----|

But you're so hypnotizing, you've got me laughing while i sing you've got me smiling in 
my sleep
|--------------------------------------------------------------|
|--------------------------------------------------------------|
|----7--7---9---9-----9---9---8---8---6---6---8---8---9-9-9-9--|
|----6--6---8---8-----9---9---9---9---7---7---9---9---9-9-9-9--|
|-------------------7---7-----------------------------7-7-7-7--|
|--5---5---7---7------------7---7---5---5---7---7--------------|

And I can see this unraveling your love is where I'm falling so please don't catch me
|--------------------------------------------------------------------------|
|--------------------------------------------------------------------------|
|--6-6-6-6--8-8-8-8--9-9-9-9--8-8-8-8--6-6-6-6--8-8-8-8--9-9-9-9--8-8-8-8--|
|--7-7-7-7--9-9-9-9--9-9-9-9--9-9-9-9--7-7-7-7--9-9-9-9--9-9-9-9--9-9-9-9--|
|--7-7-7-7--9-9-9-9--7-7-7-7--9-9-9-9--7-7-7-7--9-9-9-9--7-7-7-7--9-9-9-9--|
|--5-5-5-5--7-7-7-7-----------7-7-7-7--5-5-5-5--7-7-7-7-----------7-7-7-7--|

If this is love please don't break me, I'm giving up so just catch me.
|--------------------------------------------------------------|
|--------------------------------------------------------------|
|--6-6-6-6--8-8-8-8--9-9-9-9--6-6-6-6--------8-------9---------|
|--7-7-7-7--9-9-9-9--9-9-9-9--7-7-7-7-(ring)-9(ring)-9-(ring)--|
|--7-7-7-7--9-9-9-9--7-7-7-7--7-7-7-7--------9-------7---------|
|--5-5-5-5--7-7-7-7-----------5-5-5-5--------7-----------------|
comments
print report bad tab
1 comment total.
0 reply
CallerOfTheWild wrote on March 20 2011, 10:25 am

Just for some help: All the "chords" you could say are always the same. The person who did it accidentally switched one of the positioning it's always:

|----------| |--------|
|----------| |--------|
|----6-----| NOT |----7---|
|----7-----| |----6---|
|----------| |--------|
|--5-------| |--5-----|

Just a heads up(:

I want to post or [tab]
guest
You may want to rate the tab now too:
select rating
Please do not post tabs as comments. Select "correction" instead!