Oops, an error
Loading. Please wait.

Catch Me Tab

version 5
version 5

Whole song

Interactive

4,653 views 3 this week
no commentswrite comment
1 2 3 4 5
please rate
add to favorites
launch autoscroll
font size
0
reset
how to read this tab
guitar tuner
Autoscroll
slow
fast
+/-
esc
set tempo
stop
Help us to improve Ultimate-Guitar.com Take our survey!
×
Difficulty
intermediate
Key of A
4/4 time signature

Verse:
Before I fall
too fast
kiss me quick
but make it last
E---------------------------|-----4-----4-----4-----4--|
B------5-----5-----5-----5--|-----5-----5-----5-----5--|
G------6-----6-----6-----6--|--------------------------|
D---------------------------|--------------------------|    x2
A---0------0-----0-----0----|--------------------------|
E---------------------------|---0-----0-----0----0-----|


So I could see how
badly this will
E---------------------------|--------------------------|
B------5-----5-----5-----5--|-----4-----4-----4-----4--|
G------6-----6-----6-----6--|-----4-----4-----4-----4--|
D---------------------------|--------------------------|
A---4------4-----4-----4----|--------------------------|
E---------------------------|---4-----4-----4----4-----|


hurt me when you say
goodbye
E---------------------------|--------------------------|
B------5-----5-----5-----5--|-----7-----7-----7-----7--|
G------6-----6-----6-----6--|-----8-----8-----8-----8--|
D---------------------------|--------------------------|
A---0------0-----0-----0----|--------------------------|
E---------------------------|---7-----7-----7----7-----|

(do the same thing for the 2nd verse...)

Chorus:
But you're so hypnotizing
You've got me laughing while I sing
E---------------------------|--------------------------|
B------5-----5-----7-----7--|-----9-----9-----7-----7--|
G------6-----6-----8-----8--|-----9-----9-----8-----8--|
D---------------------------|--------------------------|
A---0------0----------------|---7-----7----------------|
E----------------7-----7----|--------------7-----7-----|

You've got me smiling in my sleep
E---------------------------|--------------------------|
B------5-----5-----7-----7--|-----9-----9-----9-----9--|
G------6-----6-----8-----8--|-----9-----9-----9-----9--|
D---------------------------|--------------------------|
A---0------0----------------|---7-----7----7----7------|
E----------------7-----7----|--------------------------|

And I can see this unravelling
Your love is where I'm falling
So please don't catch me
E---------------------------|--------------------------|
B------5-----5-----7-----7--|-----9-----9-----7-----7--|
G------6-----6-----8-----8--|-----9-----9-----8-----8--|
D---------------------------|--------------------------|
A---0------0----------------|---7-----7----------------|
E----------------7-----7----|--------------7-----7-----|

E---------------------------|--------------------------|
B------5-----5-----7-----7--|-----9-----9-----9--------|
G------6-----6-----8-----8--|-----9-----9-----9--------|
D---------------------------|--------------------------|
A---0------0----------------|---7-----7----7-----------|
E----------------7-----7----|-------------------7------|


Bridge:
So now you see
Why I'm scared
E---------------------------|--------------------------|
B------5-----5-----5-----5--|-----7-----7-----7-----7--|
G------6-----6-----6-----6--|-----8-----8-----8-----8--|
D---------------------------|--------------------------|
A---4------4-----4-----4----|--------------------------|
E---------------------------|---7-----7----7----7------|

I can't open up my heart without a care
E---------------------------|--------------------------|
B------5-----5-----7-----7--|-----5-----5-----5-----5--|
G------6-----6-----8-----8--|-----6-----6-----6-----6--|
D---------------------------|--------------------------|
A---4------4----------------|---0-----0------0------0--|
E----------------7-----7----|--------------------------|

So here I go
It's what I feel
E---------------------------|--------------------------|
B------2-----2-----2-----2--|-----4-----4-----4-----4--|
G------2-----2-----2-----2--|-----4-----4-----4-----4--|
D---------------------------|--------------------------|
A---------------------------|--------------------------|
E---2------2-----2-----2----|---4-----4----4----4------|
            

And for the first time in 
my life I know it's real
E---------------------------|---2----------------------|
B------5-----5-----5-----5--|---4----------------------|
G------5-----5-----5-----5--|---4----------------------|
D---------------------------|--------------------------|
A---3------3-----3-----3----|---2----------------------|
E---------------------------|--------------------------|

*go back to chorus

-hope you enjoy reading my first tab. :D

Suggest correction
Give kudos to tab author, rate the tab!
1 2 3 4 5
comments
print report bad tab
guest
You may want to rate the tab now too:
select rating
Wanna post a correction for this tab? Suggest correction