Oops, an error
Loading. Please wait.

Dont Forget Tab

version 1
version 1

Whole song

Interactive

138,692 views 69 this week
5 commentsread comments
1 2 3 4 5
excellent!
x 17
add to favorites
launch autoscroll
font size
0
reset
how to read this tab
guitar tuner
Tab Pro tools
  • play this tab
  • loop segment
  • change instrument
  • show fretboard
  • metronome
Autoscroll
slow
fast
+/-
esc
set tempo
stop
Contributor
-------------------------------------------------------------------
                 "Don't Forget" - Demi Lovato
-------------------------------------------------------------------
Tabbed by: Justin Riray
Myspace:   http://www.myspace.com/riray
Youtube:   http://www.youtube.com/JustinRiray

     All the other tabs are chords, so I figured I'd make
and actual tablature of the song for the kids who prefer
tabs over chords. Enjoy!

Tuning: EADGBe

Note: For the first half of the song immediately mute the notes 
by slighty taking your fingers off the frets right after 
you play them. They are all down strokes.
Then rock out for a chorus, then play very softly again.

     VERSE (play each chord 8 times)
e|---------------------------------|
B|---------------------------------|
G|--9---9---6---7---6---5---9---9--|
D|--9---9---6---7---6---5---9---9--|
A|--7---6---4---5---4---3---7---6--|
E|---------------------------------|

    CHORUS (play each chord 8 times)
e|------------------|
B|------------------|
G|--6---9---9---9---|
D|--6---9---9---9---|
A|--4---7---6---6---|
E|------------------|

    ~VERSE

    ~CHORUS

     BRIDGE (rock out)
e|--4^---------------------------------|
B|--4^---------------------------------|
G|--4^--6---9---9---9---6---9---9---9--|
D|--6^--6---9---9---9---6---9---9---9--|
A|--6^--4---7---6---6---4---7---6---6--|
E|--4^---------------------------------|
     
     CHORUS (rock out)
e|-----------------------|
B|-----------------------|
G|--2-1h2p1-9-------4-4--|
D|--2-------9-------4-4--|
A|--0-------7-7h9p7-2-2--|
E|-----------------------|

    ~VERSE (strum chords slowly and lightly)

     OUTRO (piano)
e|-----12----------------------0~----|
B|--14-------12----------------0~----|
G|--------13----11-------------1~----|
D|-----------------------------2~----|
A|-----------------------------2~----|
E|-----------------------------0~----|


comments
print report bad tab
5 comments total. Showing first comments.
0 reply
sh-ar-ing-an wrote on March 29 2009, 09:23 pm

ahh, is it legit?

0 reply
rubenz_101 wrote on April 27 2009, 03:24 am

Great Tab....

0 reply
liststreaks wrote on August 14 2009, 06:02 pm

are we supposed to play the rock out chords 8 times as well?

I want to post or [tab]
guest
You may want to rate the tab now too:
select rating
Please do not post tabs as comments. Select "correction" instead!