Oops, an error
Loading. Please wait.

Dont Forget Tab

version 2
version 2

Whole song

Interactive

18,414 views 6 this week
no commentswrite comment
1 2 3 4 5
3 more votes to show rating
add to favorites
launch autoscroll
font size
0
reset
how to read this tab
guitar tuner
Autoscroll
slow
fast
+/-
esc
set tempo
stop
Help us to improve Ultimate-Guitar.com Take our survey!
×
Capo
4th fret
okay so, this is a great song by Demi.
im pretty sure i got it.
this is my first tab so, sorry if its wrong.

tuning:standard
Capo on 4th fret

each strum is short and separated
    
    "did you forget..."
e|-----------------------------------------------------------------------|
B|-----------------------------------------------------------------------|
G|-6-6-6-6-6-6-6-6---6-6-6-6-6-6-6-6---3-3-3-3-3-3-3-3---4-4-4-4-4-4-4-4-|
D|-x-x-x-x-x-x-x-x---x-x-x-x-x-x-x-x---x-x-x-x-x-x-x-x---x-x-x-x-x-x-x-x-|
A|-4-4-4-4-4-4-4-4---3-3-3-3-3-3-3-3---1-1-1-1-1-1-1-1---2-2-2-2-2-2-2-2-|
E|-----------------------------------------------------------------------|

e|-----------------------------------------------------------------------|
B|-----------------------------------------------------------------------|
G|-3-3-3-3-3-3-3-3---------------------6-6-6-6-6-6-6-6---6-6-6-6-6-6-6-6-|
D|-x-x-x-x-x-x-x-x---7-7-7-7-7-7-7-7---x-x-x-x-x-x-x-x---x-x-x-x-x-x-x-x-|x2
A|-1-1-1-1-1-1-1-1---x-x-x-x-x-x-x-x---4-4-4-4-4-4-4-4---3-3-3-3-3-3-3-3-|
E|-------------------5-5-5-5-5-5-5-5-------------------------------------|

     "but somewhere we went wrong..."
e|-------------------------------------|
B|-------------------------------------|
G|-----------6-6-6-6---5-5-5-5-5-5-5-5-|
D|-4-4-4-4---x-x-x-x---x-x-x-x-x-x-x-x-| x4
A|-x-x-x-x---4-4-4-4---3-3-3-3-3-3-3-3-|
E|-2-2-2-2-----------------------------|

    "so now i guess..."
e|-----------------------------------------------------------------------|
B|-----------------------------------------------------------------------|
G|-6-6-6-6-6-6-6-6---6-6-6-6-6-6-6-6---3-3-3-3-3-3-3-3---4-4-4-4-4-4-4-4-|
D|-x-x-x-x-x-x-x-x---x-x-x-x-x-x-x-x---x-x-x-x-x-x-x-x---x-x-x-x-x-x-x-x-|
A|-4-4-4-4-4-4-4-4---3-3-3-3-3-3-3-3---1-1-1-1-1-1-1-1---2-2-2-2-2-2-2-2-|
E|-----------------------------------------------------------------------|

e|-----------------------------------------------------------------------|
B|-----------------------------------------------------------------------|
G|-3-3-3-3-3-3-3-3---------------------6-6-6-6-6-6-6-6---6-6-6-6-6-6-6-6-|
D|-x-x-x-x-x-x-x-x---7-7-7-7-7-7-7-7---x-x-x-x-x-x-x-x---x-x-x-x-x-x-x-x-|x2
A|-1-1-1-1-1-1-1-1---x-x-x-x-x-x-x-x---4-4-4-4-4-4-4-4---3-3-3-3-3-3-3-3-|
E|-------------------5-5-5-5-5-5-5-5-------------------------------------|


  "but somewhere we went wrong..."
e|-------------------------------------|
B|-------------------------------------|
G|-----------6-6-6-6---5-5-5-5-5-5-5-5-|
D|-4-4-4-4---x-x-x-x---x-x-x-x-x-x-x-x-| x4
A|-x-x-x-x---4-4-4-4---3-3-3-3-3-3-3-3-|
E|-2-2-2-2-----------------------------|
  
   Bridge
e|-------------------------------------|
B|-------------------------------------|
G|-3---------10------------------------|
D|-3-x4------10-x4----10---------------| x2
A|-1---------8--------10-x8------------|
E|---------------------8---------------|

    "somewhere we went wrong..."
e|-------------------------------------|
B|-------------------------------------|
G|-------------------------------------|
D|-4-4-------3-3-------6-6-6-6-6-6-6-6-|x2
A|-4-4-------3-3-------6-6-6-6-6-6-6-6-|
E|-2-2-------1-1-------4-4-4-4-4-4-4-4-|


  "our love is like a song.."
e|-------------------------------------|
B|-------------------------------------|
G|-------------------------------------|
D|-4---------3---------6-6-6-6-6-6-6-6-|x2
A|-4-x4------3-x4------6-6-6-6-6-6-6-6-|
E|-2---------1---------4-4-4-4-4-4-4-4-|

then it gets all intrumental like...

    "and at last..."
e|------------------------------------------|
B|------------------------------------------|
G|--6----6----3----4----3---------6----6----|(slow)
D|--6----6----3----4----3----7----6----6----|
A|--4----3----1----2----1----7----4----3----|
E|---------------------------5--------------|


   "somewhere we went wrong..."
e|--6--9------------------------------------|
B|--------6--9------------------------------|
G|--------------8----x4-----------6---------|
D|--------------------------------6---------|
A|--------------------------------4---------|
E|------------------------------------------|



thats it.
im positive that its right but if not, its pretty close:)
Suggest correction
Give kudos to tab author, rate the tab!
1 2 3 4 5
comments
print report bad tab
guest
You may want to rate the tab now too:
select rating
Wanna post a correction for this tab? Suggest correction