Oops, an error
Loading. Please wait.

Dont Forget Tab

version 3
version 3

Whole song

Interactive

33,044 views 6 this week
1 commentread comment
1 2 3 4 5
x 7
add to favorites
launch autoscroll
font size
0
reset
how to read this tab
guitar tuner
Autoscroll
slow
fast
+/-
esc
set tempo
stop
Help us to improve Ultimate-Guitar.com Take our survey!
×
Author
Tabbers playing skills
advanced +
Donated by Francis S.

09283150081

Sacred heart College BSN 4-A Batch 2010



Tuning:standard
Verse-
GtrI
   E                B/D#            C#m            D 
e|----------------------------------------------------------------------|
B|----------------------------------------------------------------------|
G|-9-9-9-9-9-9-9-9-9-9-9-9-9-9-9-9-6-6-6-6-6-6-6-6-7-7-7-7-7-7-7-7------|
D|-9-9-9-9-9-9-9-9-9-9-9-9-9-9-9-9-6-6-6-6-6-6-6-6-7-7-7-7-7-7-7-7------|
A|-7-7-7-7-7-7-7-7-6-6-6-6-6-6-6-6-4-4-4-4-4-4-4-4-5-5-5-5-5-5-5-5------|
E|----------------------------------------------------------------------|
    A               Am              E               B
e|----------------------------------------------------------------------|
B|----------------------------------------------------------------------|
G|--6-6-6-6-6-6-6-6-5-5-5-5-5-5-5-5-9-9-9-9-9-9-9-9-8-8-8-8-8-8-8-8-----|
D|--7-7-7-7-7-7-7-7-7-7-7-7-7-7-7-7-9-9-9-9-9-9-9-9-9-9-9-9-9-9-9-9-----|
A|--7-7-7-7-7-7-7-7-7-7-7-7-7-7-7-7-7-7-7-7-7-7-7-7-9-9-9-9-9-9-9-9-----|
E|--5-5-5-5-5-5-5-5-5-5-5-5-5-5-5-5-----------------7-7-7-7-7-7-7-7-----|

repeat Verse

Refrain
GtrI
    A       E       B
e|------------------------------------------|
B|------------------------------------------|
G|--6-6-6-6-9-9-9-9-8-8-8-8-8-8-8-8---------|
D|--7-7-7-7-9-9-9-9-9-9-9-9-9-9-9-9---------|4x
A|--7-7-7-7-7-7-7-7-9-9-9-9-9-9-9-9---------|
E|--5-5-5-5---------7-7-7-7-7-7-7-7---------|

Repeat Verse - refrain

GtrII
  E
------|
--9~--|
--9~--|
--9~--|
------|
------|

Post-chorus-
GtrI
e|------------------------------------------|
B|------------------------------------------|
G|----------9-9-9-9-------------------------|
D|--7-7-7-7-9-9-9-9-9-9-9-9-9-9-9-9---------|2x
A|--7-7-7-7-7-7-7-7-9-9-9-9-9-9-9-9---------|
E|--5-5-5-5---------7-7-7-7-7-7-7-7---------|
GtrII


e|-----------------------------------------------|
B|-----------------------------------------------|
G|-6-6-6-6-13-13-13-13-11-11-11-11-9/11-11-11-11-|
D|-----------------------------------------------|
A|-4-4-4-4-11-11-11-11-9--9--9--9--7/9--9--9--9--|
E|-----------------------------------------------|

e|----------------------------------------------|
B|----------------------------------------------|
G|-6-6-6-6-13-13-13-13-16-16-16-16-16-16-16-16--|
D|----------------------------------------------|
A|-4-4-4-4-11-11-11-11-14-14-14-14-14-14-14-14--|
E|----------------------------------------------|


Chorus-
GtrI
e|------------------------------------------|
B|------------------------------------------|
G|----------9-9-----------------------------|
D|--7-7-----9-9-----9-9-9-9-9-9-9-9---------|2x
A|--7-7-----7-7-----9-9-9-9-9-9-9-9---------|
E|--5-5-------------7-7-7-7-7-7-7-7---------|

e|------------------------------------------|
B|------------------------------------------|
G|----------9-9-9-9-------------------------|
D|--7-7-7-7-9-9-9-9-9-9-9-9-9-9-9-9---------|2x
A|--7-7-7-7-7-7-7-7-9-9-9-9-9-9-9-9---------|
E|--5-5-5-5---------7-7-7-7-7-7-7-7---------|

GtrII
e|------------------------------------------------|
B|------------------------------------------------|
G|-----13/14\13--------9/11\9--4-4-4-4-4-4-4-4----|
D|-7-7------------2-2----------4-4-4-4-4-4-4-4----|2x
A|-7-7-11/12\11---2-2--7/9-\7--2-2-2-2-2-2-2-2----|
E|-5-5------------0-0-----------------------------|

e|-----------------------------------------------------------------------|
B|-----------------------------------------------------------------------|
G|-14141414-9-9-9-9-111111111111111--1414-13/11/9-9-9-9-1111111111111111-|
D|-----------------------------------------------------------------------|
A|-12121212-7-7-7-7-9-9-9-9-9-9-9-9--1212-11/9-/7-7-7-7-9-9-9-9-9-9-9-9--|
E|-----------------------------------------------------------------------|

Verse-
Then synth-
  E                B/D#            C#m             D5
e|----------------------------------------------------------------------|
B|----------------------------------------------------------------------|
G|-9---------------9---------------6---------------7--------------------|
D|-9---------------9---------------6---------------7--------------------|
A|-7---------------6---------------4---------------5--------------------|
E|----------------------------------------------------------------------|
    A               Am             E               B
e|----------------------------------------------------------------------|
B|--2---------------1---------------------------------------------------|
G|--2---------------2---------------9---------------8-------------------|
D|--2---------------2---------------9---------------9-------------------|
A|--0---------------0---------------7---------------9-------------------|
E|--------------------------------------------------7-------------------|

repeat Verse

-coda
   A         E      B
e|------------------------------------------|
B|------------------------------------------|
G|--6-------9-------8-----------------------|
D|--7-------9-------9-----------------------|4x
A|--7-------7-------9-----------------------|
E|--5---------------7-----------------------|

Piano
e|----12-----------|
B|-14------12------|
G|------13----11~--|
D|-----------------|
A|-----------------|
E|-----------------|

end E

| /  slide up
| \  slide down
| h  hammer-on
| p  pull-off
| ~  vibrato
| +  harmonic
| x  Mute note
===============================================================================

hi...to all BSN sa sakre...
Suggest correction
comments
print report bad tab
1 comment total.
0 reply
xFollowMeDownnx 10 Jun 21, 2011 10:34 PM

This is perfect. :]

guest
You may want to rate the tab now too:
select rating
Wanna post a correction for this tab? Suggest correction