Oops, an error
Loading. Please wait.

Get Back Bass Tab

version 1
version 1

Whole song

Interactive

6,311 views 1 this week
no commentswrite comment
1 2 3 4 5
excellent!
x 3
add to favorites
launch autoscroll
font size
0
reset
guitar tuner
Tab Pro tools
  • play this tab
  • loop segment
  • change instrument
  • show fretboard
  • metronome
Autoscroll
slow
fast
+/-
esc
set tempo
stop
-------------------------------------------------------------------------------
			     Get Back - Demi Lovato
-------------------------------------------------------------------------------

Tabbed By : Jordan-Beth
e-mail: jordan-beth@hotmail.co.uk

Tuning: Standard

Verse
|------------| 
|------------|
|------------|     x4
|-3333--7-8--|

Pre-chorus:
|-----------------------------------------------------------------------------|
|-----------------------------------------------------------------------------|
|-88888888-------------------------------88888888-----------------------------|
|-----------88888888---33333333-33333333----------88888888---1010101010101010-|<10's 
                                                                                         
Chorus:
|------------------------------------------|      |--------------|
|------------------------------------------|      |--------------|
|--------------------33333333-33333333-----|   x3 |-55555555--8--|
|333333333--11111111-----------------------|      |--------------|

Verse
Pre-Chorus
Chorus

Short solo after 2nd chorus.
|----------------------| 
|----------7-5-7/8-7/5-|
|---2-37-8-------------|   x2
|-3--------------------|

Bridge
|---------------------------------------------------------------|
|---------------------------------------------------------------|
|---------33333333---------33333333---------33333333---------3--|
|-33333333---------33333333---------33333333---------33333333---|

|--------------------|      |-----------------------------------|  
|--------------------|      |-----------------------------------| 
|--------------------|  x2  |-------------55555555-55555555-----|
|-33333-/-7-88888888-|      |-33333-/-7-8-----------------------|

|------------------------------------------|        |------| 
|------------------------------------------|        |------|  
|--------------------33333333-33333333-----|   x2   |--33--| 
|-333333333-11111111-----------------------|        |------| 

Pause Then :
|-----------------------------------------|
|-----------------------------------------| 
|--33333333-33333333--77777777---88888888-|  
|-----------------------------------------| 

|-----------------------|   
|-----------------------|  
|-----------------------|   x4
|-333333333---11111111--|    

|-------------------------------------------------------------|          
|-------------------------------------------------------------|            
|---------------------33333333-33333333--77777777----88888888-|     x2 
|-333333333---11111111----------------------------------------| 

|-------------------|          
|-------------------|            
|-77777777-88888888-|     x2  3rd time just play |-7--8-|          
|-------------------|               and hold
comments
We did not receive enough feedback on this tab! Please rate:
print report bad tab
1 2 3 4 5
I want to post or [tab]
guest
You may want to rate the tab now too:
select rating
Please do not post tabs as comments. Select "correction" instead!