Oops, an error
Loading. Please wait.

Get Back Tab

version 1
version 1

Whole song

Interactive

47,449 views 1 this week
13 commentsread comments
1 2 3 4 5
x 14
add to favorites
launch autoscroll
font size
0
reset
how to read this tab
guitar tuner
Autoscroll
slow
fast
+/-
esc
set tempo
stop
Help us to improve Ultimate-Guitar.com Take our survey!
×
Author
Tabbed by: Rebecca

Verse:listen to the song for timing
|------------|
|------------|
|------------| 4x
|-5555--9-10-|
|-5555--9-10-|
|-3333--7-8--|

Pre-chorus:
|--------------------------------------|
|--------------------------------------|
|-10----------------10-----------------|
|-10-8x-10----5-----10-8x-10----12-----|
|-8-----10-8x-5-16x-8-----10-8x-12-16x-|
|-------8-----3-----------8-----10-----|

Chorus:
|-----------------|    |------|
|-----------------|    |------|
|-----------5-----| 3x |-7----|
|-5----3----5-16x-|    |-7-8x-|
|-5-8x-3-8x-3-----|    |-5----|
|-3----1----------|    |------|

the solo after the 2nd chorus, before the bridge
|----------------------|
|----------------------|
|----------------------| 2x 
|----------7-5-7/8-7/5-|
|---2-37-8-------------|
|-3--------------------|

bridge:
|---------------------------------|
|---------------------------------|
|------5---------5---------5------|
|-5----5-8x-5----5-8x-5----5-8x-5-|
|-5-8x-3----5-8x-3----5-8x-3----5-|
|-3---------3---------3---------3-|

the screaming part :)
|----------------------------------------------|
|----------------------------------------------|
|----------------------------------------------|
|-5---/9-10----5---/9-10----33-5---/9-10-7-----|
|-5-5x/9-10-8x-5-5x/9-10-4x-33-5-5x/9-10-7-16x-|
|-3---/7-8-----3---/7-8-----11-3---/7-8--5-----|

the end part
|----------------------------------------------------|
|----------------------------------------------------|
|----------------------------------------------------|
|-------5------------3-------------5------------3----|
|-------5-8x---------38x-----------5-8x---------3-8x-|
|-------3------------1-------------3------------1----|
I wanna get back get back, i wanna get back get back

|----------------------|
|----------------------|
|----------------------|
|-------5------------3-|
|-------5------------3-|
|-------3------------1-|
I wanna get back get back

|--------------------|
|--------------------|
|--------------------|
|----5-5--5--------5-|
|----5-5--5-16x----5-|
|----3-3--3--------3-|
get back yeah      yahw!


/ - slide


hope you like it!
rate and comment please!
Suggest correction
comments
print report bad tab
13 comments total. Showing first comments.
+4 reply
Lunchbox999 10 Aug 07, 2008 08:07 PM

hey, awesome tab, it's really good.
i hate to even say anything cause i don't wanna undermine the hard work you did to make this but i think that last part of the chorus where you have D5 8x should be one fret higher. and i figured out the harmonics just before the second chorus. it's 7th fret on the G string (2x), 5th on the B (2x) and then 5th on the G (2x).

anyway thanks for the tab!! totally 5 stars, good job!

+1 reply
BikaiMikai 183 Aug 08, 2008 01:42 AM

you're right!
it should be a fret higher
it's actually
|---------|
|---------|
|-8----10-|
|-8-7x-10-|
|-6----8--|
|---------|

+1 reply
BikaiMikai 183 Aug 08, 2008 01:56 AM

i got the bridge wrong too
it's actually...
|---------------------------------------|
|---------------------------------------|
|------5----------5---------5---------5-|
|-5----5-8x--5----5-8x-5----5-8x-5----5-|
|-5-8x-3-----5-8x-3----5-8x-3----5-8x-3-|
|-3----------3---------3---------3------|

and the screaming part is...
|----------------------------------------------|
|----------------------------------------------|
|----------------------------------------7-----|
|-5---/9-10----5---/9-10----33-5---/9-10-7-16x-|
|-5-5x/9-10-8x-5-5x/9-10-4x-33-5-5x/9-10-5-----|
|-3---/7-8-----3---/7-8-----11-3---/7-8--------|

guest
You may want to rate the tab now too:
select rating
Wanna post a correction for this tab? Suggest correction