Oops, an error
Loading. Please wait.

Get Back Tab

version 3
version 3

Whole song

Interactive

1,696 views 3 this week
no commentswrite comment
1 2 3 4 5
excellent!
x 4
add to favorites
launch autoscroll
font size
0
reset
how to read this tab
guitar tuner
Autoscroll
slow
fast
+/-
esc
set tempo
stop
Help us to improve Ultimate-Guitar.com Take our survey!
×
Contributor
Difficulty
kasiajonas 1,701
novice
-------------------------------------------------------------------------------
                             GET BACK - Demi Lovato
-------------------------------------------------------------------------------
Tabbed by: kasiajonas
Email: popolsku8@gmail.com

Tuning: Standard

INTRO
e|---------------------------------------------------------------------------|
B|---------------------------------------------------------------------------|
G|---------------------------------------------------------------------------|x2
D|-5555--9-10----------------------------------------------------------------|
A|-5555--9-10----------------------------------------------------------------|
E|-3333--7-8-----------------------------------------------------------------|

VERSE
e|---------------------------------------------------------------------------|
B|---------------------------------------------------------------------------|
G|---------------------------------------------------------------------------|x4
D|-5555--9-10----------------------------------------------------------------|
A|-5555--9-10----------------------------------------------------------------|
E|-3333--7-8-----------------------------------------------------------------|

PRE-CHORUS
e|---------------------------------------------------------------------------|
B|---------------------------------------------------------------------------|
G|----------5555555------------------33333333-55555555-7777777777777777------|
D|-33333333-5555555-5555555555555555-33333333-55555555-7777777777777777------|
A|-33333333-3333333-5555555555555555-11111111-33333333-5555555555555555------|
E|-11111111---------3333333333333333-----------------------------------------|

CHORUS
e|---------------------------------------------------------------------------|
B|---------------------------------------------------------------------------|
G|-[------------------5555555555555555]----8888888-10------------------------|
D|-[55555555-33333333-5555555555555555]x3--8888888-10------------------------|
A|-[55555555-33333333-3333333333333333]----6666666-8-------------------------|
E|-[33333333-11111111-----------------]--------------------------------------|

INTRO
e|---------------------------------------------------------------------------|
B|---------------------------------------------------------------------------|
G|---------------------------------------------------------------------------|x2
D|-5555--9-10----------------------------------------------------------------|
A|-5555--9-10----------------------------------------------------------------|
E|-3333--7-8-----------------------------------------------------------------|

VERSE
e|---------------------------------------------------------------------------|
B|---------------------------------------------------------------------------|
G|---------------------------------------------------------------------------|x4
D|-5555--9-10----------------------------------------------------------------|
A|-5555--9-10----------------------------------------------------------------|
E|-3333--7-8-----------------------------------------------------------------|

PRE-CHORUS
e|---------------------------------------------------------------------------|
B|---------------------------------------------------------------------------|
G|----------5555555------------------33333333-55555555-7777777777777777------|
D|-33333333-5555555-5555555555555555-33333333-55555555-7777777777777777------|
A|-33333333-3333333-5555555555555555-11111111-33333333-5555555555555555------|
E|-11111111---------3333333333333333-----------------------------------------|

CHORUS
e|---------------------------------------------------------------------------|
B|---------------------------------------------------------------------------|
G|-[------------------5555555555555555]----8888888-10------------------------|
D|-[55555555-33333333-5555555555555555]x3--8888888-10------------------------|
A|-[55555555-33333333-3333333333333333]----6666666-8-------------------------|
E|-[33333333-11111111-----------------]--------------------------------------|

INTERLUDE
e|---------------------------------------------------------------------------|
B|---------------------------------------------------------------------------|
G|---------------------------------------------------------------------------|
D|-----------7-5-7/8-7/5------------7-5-7/8-7/5------------------------------|
A|---2-3-7-8----------------2-3-7-8------------------------------------------|
E|-3----------------------3--------------------------------------------------|

BRIDGE
e|---------------------------------------------------------------------------|
B|---------------------------------------------------------------------------|
G|-[---------55555555]-------------------------------------------------------|
D|-[55555555-55555555]x3-5---------------------------------------------------|
A|-[55555555-33333333]---5---------------------------------------------------|
E|-[33333333---------]---3---------------------------------------------------|

CHORUS
e|---------------------------------------------------------------------------|
B|---------------------------------------------------------------------------|
G|-[------------------5555555555555555]--------------------------------------|
D|-[55555555-33333333-5555555555555555]x2------------------------------------|
A|-[55555555-33333333-3333333333333333]--------------------------------------|
E|-[33333333-11111111-----------------]--------------------------------------|


e|---------------------------------------------------------------------------|
B|---------------------------------------------------------------------------|
G|-----55555555555555555--88888888-10-10-10-10-10-10-10-10-------------------|
D|-5-3-55555555555555555--88888888-------------------------------------------|
A|-5-3-33333333333333333--66666666-8--8--8--8--8--8--8--8--------------------|
E|-3-1-----------------------------------------------------------------------|

e|---------------------------------------------------------------------------|
B|---------------------------------------------------------------------------|
G|-[------------------5555555555555555]----8888888-10------------------------|
D|-[55555555-33333333-5555555555555555]x3--8888888-10------------------------|
A|-[55555555-33333333-3333333333333333]----6666666-8-------------------------|
E|-[33333333-11111111-----------------]--------------------------------------|

e|---------------------------------------------------------------------------|
B|---------------------------------------------------------------------------|
G|[------------------55555555555555555]--[88888888-10-10-10-10-10-10-10-10]--|
D|[55555555-33333333-55555555555555555]x3[88888888------------------------]x2|
A|[55555555-33333333-33333333333333333]--[66666666-8--8--8--8--8--8--8--8-]--|
E|[33333333-11111111------------------]--------------------------------------|

e|---------------------------------------------------------------------------|
B|---------------------------------------------------------------------------|
G|-8-88-10--5~-5555----------------------------------------------------------|
D|-8-88-10--5~-5555----------------------------------------------------------|
A|-6-66-8---3~-3333----------------------------------------------------------|
E|---------------------------------------------------------------------------|


************************************

| /   slide up
| \   slide down
| h   hammer-on
| p   pull-off
| ~   vibrato
| +   harmonic
| x   Mute note
| b   Bend
| pb  Pre-bend
| br  Bend release
| pbr Pre-bend release
| brb Bend release bend

************************************
comments
print report bad tab
I want to post or [tab]
guest
You may want to rate the tab now too:
select rating
Please do not post tabs as comments. Select "correction" instead!