Oops, an error
Loading. Please wait.

Gift Of A Friend Chords

version 2
version 2

Whole song

22,226 views 18 this week
2 commentsread comments
1 2 3 4 5
accurate
x 7
add to favorites
launch autoscroll
font size
0
reset
transpose
0
reset
- display chords -
guitar tuner
Tab Pro tools
  • play this tab
  • loop segment
  • change instrument
  • show fretboard
  • metronome
Autoscroll
slow
fast
+/-
esc
set tempo
stop
Contributor
Demi Lovato
Gift Of A Friend
Here We Go Again
2009 Hollywood Records
Submitted by: paramore_fans@yahoo.com


This song sounds like her old song UNTIL YOU'RE MINE

Key: F#

Tuning: Standard EADGBe

Chords used:
Ebm -   x68876
B -     x24442
F# -    244322
C#/F -  143xxx
C# -    x46664
F#/Bb - x143xx
G#m -   466444
Bbm -   x13321


Intro: Ebm-B-F#-C#/F-Ebm-B-C#--

Guitar 2:
     Ebm       B        F#     C#/F
e|-2--1-----|------|---------|------|
B|------4-2-|-4----|-2-------|------|
G|----------|----4-|----3----|--1---|
D|----------|------|-------4-|------|
A|----------|------|---------|------|
E|----------|------|---------|------|

     Ebm       B             C#
e|-2--1-----|------|-2--4--6--4--6-4---|
B|------4-2-|-4----|-----------------7-|
G|----------|----4-|-------------------|
D|----------|------|-------------------|
A|----------|------|-------------------|
E|----------|------|-------------------|

Violin:
        Ebm          B          F#      C#/F
e|-14--13--------|--------|------------|-----|
B|---------16-14-|-16-----|-14---------|-----|
G|---------------|-----16-|-----15-----|-13--|
D|---------------|--------|---------16-|-----|
A|---------------|--------|------------|-----|
E|---------------|--------|------------|-----|

        Ebm          B            C#
e|-14--13--------|--------|-14--16--18--16-|
B|---------16-14-|-16-----|----------------|
G|---------------|-----16-|----------------|
D|---------------|--------|----------------|
A|---------------|--------|----------------|
E|---------------|--------|----------------|


Verse 1:
Ebm           B
Sometimes You think You'll
   F#          C#
Be Find by Yourself
        Ebm
Cause a Dream is a
B        C#
Wish You Make all alone
    Ebm     B
Its Easy to Feel Like
F#            C#
You Dont Need Help
        B
But Its Harder To
F#           C#
Walk On Your Own


Refrain:
       G#m
You'll Change
  Bbm       Ebm
Inside When You
   C#
Realize


Chorus 1:
The World
         B
Comes To Life
    F#           C#
and Everything's right
       Ebm        B
From Beginning To End
     G#m
When You Have a
C#             B
Friend By Your Side
     F#           C#
That Helps You To Find
    G#m       F#/Bb
The Beauty Of All
            Ebm
When You'll Open
     C#/F
Your Heart and
  B
Believe in
C#
  The Gift of a Friend


Interlude: Ebm-B-F#-C#/F-Ebm-B-C#--

Guitar 2:
     Ebm       B        F#     C#/F
e|-2--1-----|------|---------|------|
B|------4-2-|-4----|-2-------|------|
G|----------|----4-|----3----|--1---|
D|----------|------|-------4-|------|
A|----------|------|---------|------|
E|----------|------|---------|------|

     Ebm       B             C#
e|-2--1-----|------|-2--4--6--4--6-4---|
B|------4-2-|-4----|-----------------7-|
G|----------|----4-|-------------------|
D|----------|------|-------------------|
A|----------|------|-------------------|
E|----------|------|-------------------|

Violin:
        Ebm          B          F#      C#/F
e|-14--13--------|--------|------------|-----|
B|---------16-14-|-16-----|-14---------|-----|
G|---------------|-----16-|-----15-----|-13--|
D|---------------|--------|---------16-|-----|
A|---------------|--------|------------|-----|
E|---------------|--------|------------|-----|

        Ebm          B            C#
e|-14--13--------|--------|-14--16--18--16-|
B|---------16-14-|-16-----|----------------|
G|---------------|-----16-|----------------|
D|---------------|--------|----------------|
A|---------------|--------|----------------|
E|---------------|--------|----------------|


Verse 2:
Ebm         B
Someone Who knows When
     F#             C#
Your Lost and Your Scared
Ebm
There through The
B             C#
Highs and The Lows
Ebm             B
Someone You Can Count
   F#          C#/F
On Someone Who Cares
  Ebm             F#       C#
Besides You Where Ever You Go


(Repeat Refrain)
(Repeat Chorus 1)


Interlude: F#/Bb--F#-C#/F-


Bridge:
    Ebm
And When your Hope Crashes Down
B
Shattering To The Ground
F#
You'll, You'll
          C#
Feel All Alone
         Ebm
When You Dont Know
Which Way To Go
    C#/F
And There's No signs
            B   C#
Leading You home
            C#
You're Not Alone


Chorus 2:
The World
         B
Comes To Life
    F#           C#
and Everything's right
       Ebm        B
From Beginning To End
     G#m
When You Have a
C#             B
Friend By Your Side
     F#           C#
That Helps You To Find
    G#m       F#/Bb
The Beauty Of All
            Ebm
When You'll Open
     C#/F
Your Heart and
  G#m     F#/Bb
Believe in
           Ebm     C#/F
When You Believe In
          B
You Can Believe In
C#
  The Gift of a Friend


Piano: "The world comes to life"
e|-14-13----14-13----14-13----14-13----|
B|-------14-------14-------14-------14-|
G|-------------------------------------|
D|-------------------------------------|
A|-------------------------------------|
E|-------------------------------------|


Outro: Ebm-B-F#-C#/F-Ebm-B-C#--

Guitar 2:
     Ebm       B        F#     C#/F
e|-2--1-----|------|---------|------|
B|------4-2-|-4----|-2-------|------|
G|----------|----4-|----3----|--1---|
D|----------|------|-------4-|------|
A|----------|------|---------|------|
E|----------|------|---------|------|

     Ebm       B             C#
e|-2--1-----|------|-2--4--6--4--6-4---|
B|------4-2-|-4----|-----------------7-|
G|----------|----4-|-------------------|
D|----------|------|-------------------|
A|----------|------|-------------------|
E|----------|------|-------------------|

Violin:
        Ebm          B          F#      C#/F
e|-14--13--------|--------|------------|-----|
B|---------16-14-|-16-----|-14---------|-----|
G|---------------|-----16-|-----15-----|-13--|
D|---------------|--------|---------16-|-----|
A|---------------|--------|------------|-----|
E|---------------|--------|------------|-----|

        Ebm          B            C#
e|-14--13--------|--------|-14--16--18--16-|
B|---------16-14-|-16-----|----------------|
G|---------------|-----16-|----------------|
D|---------------|--------|----------------|
A|---------------|--------|----------------|
E|---------------|--------|----------------|
comments
print report bad tab
2 comments total.
-1 reply
Dempsey68 wrote on August 21 2009, 08:08 am

i like the way you've tabbed the intro, that's very useful thank you!

but the chords seem a bit off, i personally think the other version (capo6) is more accurate, and with my short stubby fingers, i can play the other version better lol.

0 reply
rgunday wrote on November 8 2009, 07:38 pm

5 stars for this tab bcoz it almost sounds like the recording one and the intro is awesome. I am not sure abt the voilion part though!

I want to post or [tab]
guest
You may want to rate the tab now too:
select rating
Please do not post tabs as comments. Select "correction" instead!