Oops, an error
Loading. Please wait.

Got Dynamite intro tab

version 1
version 1

Intro

Whole song

4,264 views 1 this week
1 commentread comment
1 2 3 4 5
3 more votes to show rating
add to favorites
×
Save as Personal and add changes to this tab that will be seen only by you. Learn more ›
×
You can save this tab as Personal to edit and correct it or add notes. All changes will be seen only by you. Learn more »
launch autoscroll
font size
0
reset
how to read this tab
guitar tuner
edit
Autoscroll
slow
fast
+/-
esc
set tempo
stop
--------------------------------------------------------
               GOT DYNAMITE INTRO SOLO
--------------------------------------------------------

ARTIST: DEMI LOVATO
SONG: GOT DYNAMITE
ALBUM: HERE WE GO AGAIN 
SOLO TAB
STANDAR TUNING 
NO CAPO

PLEASE VISIT www.youtube.com/user/DemiLovatoCovers (this is my YouTube)
(IF YOU COPY, PLEASE, GIVE ME THE CREDIT: YOUTUBE DemiLovatoCovers)
e|----------------------|--------------------------|
B|----------------------|--------------------------|
G|----------------------|--------------------------|
D|--------------2-0-----|--------------2-0---------|x2
A|------------2-----2-0-|------------2-----2-0-2-0-|
E|-0-0-0-0--0-----------|-0-0-0-0--0---------------|     

PLEASE VISIT www.youtube.com/user/DemiLovatoCovers (this is my YouTube)
(IF YOU COPY, PLEASE, GIVE ME THE CREDIT: YOUTUBE DemiLovatoCovers

            
            
Suggest correction
Creating personal tab
Creating personal tab
You can edit any tab online and save it as your Personal.

You can edit, replace or remove any tab part or add personal notes – all changes will be seen only by you.

Personal tabs can be accessed anytime from any device, even offline.
Learn more »
Give kudos to tab author, rate the tab!
1 2 3 4 5
comments
print report bad tab
1 comment total.
0 reply
X66x66 98 Jul 24, 2009 11:53 AM

E|----------------------------------------------------------
B|----------------------------------------------------------
G|----------------------------------------------------------
D|----------------------------------------------------------
A|----------------7------------------------7--5-------------
E|--0----0--3--0-----7--5--3--0--0--3--0--------7--6--5--3--

guest
You may want to rate the tab now too:
select rating
Wanna post a correction for this tab? Suggest correction