Oops, an error
Loading. Please wait.

Here We Go Again Tab

version 1
version 1

Album

Whole song

Interactive

12,748 views 6 this week
no commentswrite comment
1 2 3 4 5
accurate
x 5
add to favorites
launch autoscroll
font size
0
reset
how to read this tab
guitar tuner
Tab Pro tools
  • play this tab
  • loop segment
  • change instrument
  • show fretboard
  • metronome
×
Best way to learn
"Here We Go Again"
Autoscroll
slow
fast
+/-
esc
set tempo
stop
Contributor
Difficulty
I was going through the other versions of HWGA and they were off in a few places. 
So I compiled the most accurate versions that I could find of the songs and made a 
few changes. Let me know if you find anything that is still off. I double-checked 
everything but a few things may have slipped through the cracks. Everything is in 
standard tuning unless otherwise indicated. I included the chord charts for some 
of the more obscure chords. Oh, and I didn't included "Gift of a Friend" cause 
well, the song is kinda lame (sorry Demi). 



01. Here We Go Again

          F                         Dm                Bb         F
e|-1---------------|       |-1--3--5--3--1-3-|-6--5--3--1--3-5-|-1-|
B|----1------------|       |-----------------|-----------------|---|
G|-------2--0----0-| x2    |-----------------|-----------------|---|
D|-------------3---|       |-----------------|-----------------|---|
A|-----------------|       |-----------------|-----------------|---|
E|-----------------|       |-----------------|-----------------|---|

Verse Riff:
e|---------------------------------|
B|---------------------------------|
G|-----0-----2-----3-----2-----0---|
D|-3-3---3-3---3-3---3-3---3-3---3-| x4
A|---------------------------------|
E|---------------------------------|

F
  I throw all of your stuff away, and then I clear you out of my head
Dm                           Bb
  I tear you out of my heart, and ignore all your messages
F      												Dm
  I tell everyone that we got through, cause I’m so much better without you
  Bb
But it's just another pretty lie cause I break down
Gm                  Bb
Everytime you come around, oh oh oh

F
So how did you get here under my skin?
C
I swore that I'll never let you back in
Gm
Should have known better than trying to let you
Bb
   Go, cause here we go go go again
F
Hard as I try I know I can't quit
C
Something about you is so addictive
      Gm
We're falling together, you’d think that by now I’d
Bb
  Know cause here we go go go again

F
  You never know what you want, you never say what you need
Dm				    Bb
  But I start to go insane everytime that you look at me
F												Dm
  You only hear half of what I say and you’re always showing up too late

Bb
And I know that I should say goodbye but it's no use
Gm                       Bb
Can't be with or without you, oh oh oh

F
So how did you get here under my skin?
C
I swore that I'll never let you back in
Gm
Should have known better than trying to let you
Bb
   Go, cause here we go go go again
F
Hard as I try I know I can't quit
C
Something about you is so addictive
      Gm
We're falling together, you’d think that by now I’d 
Bb
  Know cause here we go go go again

Bb   C    Dm   F   C/E    Dm      x2
Ohhh
     Bb
And Again
      C
(And Again)
     Dm
And Again
      F    C/E Dm
(And Again)
     Bb C Dm F C/E Dm
And Again

F
  I threw all of your stuff away, and I cleared you out of my head
Dm					Bb
  And I tore you out of my heart, Oh Oh Oh Oh

F
So how did you get here under my skin?
C
I swore that I'll never let you back in
Gm
Should have known better than trying to let you
Bb
   Go, cause here we go go go again
F
Hard as I try I know I can't quit
C
Something about you is so addictive
      
Gm
We're falling together, you’d think that by now I’d 
Bb
  Know cause here we go go go again
F			   C
Here we go again, here we go again
Gm								   Bb
Should have known better in trying to let you go
  F
Cause here we go go go again again again again again...

___________________________________________________________________________


02. Solo

C
You speak to me
                           G
And in your words I hear a melody
                            Am
But in the twilight it's so hard to see
                F
What's wrong for me 

C
I can't resist
                           G
Until you give the truth a little twist
                        Am
As if you're gonna get away with this
               F
You're not sorry

Em        F            G
I can't believe I fell for this

C                  G
I fell through the hole
            Am             F
Down at the bottom of your soul
C                      Bb    F   G
Didn't think you could go so low
C                   G
Look at what you've done
              Am                     F
You're losing me, here's what you've won
C                  Bb   F  G    C
Got me planning to go solo, solo

C
You sing to me
                          G
Too bad you couldn't even stay on key
                       Am
If your life is such a mystery
                            F
Why don't you just stick to acting

 C
Oh, here we go again
                            G
You couldn't find my number until when
                                  Am
You thought that you could get to my best friend
                             F
Without a script your game is lacking

Em        F            G
I can't believe I fell for this

C                  G
I fell through the hole
            Am             F
Down at the bottom of your soul
C                      Bb    F  G
Didn't think you could go so low
C                   G
Look at what you've done
              Am                     F
You're losing me, here's what you've won
C                  Bb   F  G    
Got me planning to go solo, solo

Am
 I'd rather go to a party alone
F                            D
 Than have to go around with you on my arm
Am
 Now that I'm prone to admit that we're done
 F                    G     C G Am F
 Good luck trying to find me

e|-----12----10--------------------------------------------------------------|
B|-----------------12-13h-12-------------------------------------------------|
G|-------------------------------14--14--------------------------------------|
D|------------------------------------------------14--10-----7-10-7---5------|
A|---------------------------------------12--12------------------------------|
E|---------------------------------------------------------------------------|


  C                      Bb    F  G
Oh, 'cause I didn't think you could go so low
C                   G
Look at what you've done
              Am                     F
You're losing me, here's what you've won
C                  Bb   F  G
Got me planning to go solo, solo
C G          Am  F
   Now we're done
           C                  Bb   F  G C
'Cause you got me planning to go solo,  solo


e|---------------------------------------------------------------------------|
B|---------------------------------------------------------------------------|
G|-------5----------------5----------------5---------------5-----------------|
D|----2-----5--2-------------2----------------5--2------------3--2-----------| x2
A|---------------------5--------5-------3------------------------------------|
E|------------------------------------------------------6--------------------| 
                                                                   
___________________________________________________________________________

03. U Got Nothing On Me

G
You got nothing on me!   X3  

e|-5-3----------------|
B|------3-0--0--------|
G|-------------2--2-0-|
D|--------------------| x2
A|--------------------|
E|--------------------|
 You got nothing on me!

G
Summer came and took me by surprise
    G                       Am
The California sunshine in my eyes
Am               G
Driving with the top down
         D                G
We sing along to our favorite song
                 D
Nothing could go wrong

G
Laughing as we gazed under the moon
    G                            Am
You kissed me and it never felt too soon
Am         G            D                G
Hard to believe that anything could tear us apart
                  D
Then you break my heart

    C      G       D
Now I know who you are 
                  C
You got nothin on me
  G                 D
I see I should have known it from the start (you got nothin’ on me)
C         G       D
You can't tell me lies, don't even try
      C     Cm     G
'Cause this is goodbye, goodbye

G
Caught you from the corner of my eye
    G                          Am
You smiled at a girl while passing by
    Am                 G                   D
You thought you had me fooled but you were wrong
               G                          D
I know what's going on, it didn't take me long

G
It wasn't hard to read between the lines
    G                            Am
The necklace in your car that wasn't mine
Am               G            D
Nothing left for you to do or say
           G                   D
So I'm on my way, now it's too late

C      G       D
Now I know who you are 
                  C
You got nothin on me
  G                 D
I see I should have known it from the start (you got nothin’ on me)
C         G       D
You can't tell me lies, don't even try
      C     Cm     
'Cause this is goodbye, goodbye

Em
Goodbye to broken promises
G                             D
Time to face your carelessness
      Em
Don't bore me with apologies
   G                          D
Or come back crawling on your knees
                  Am
You got nothin on me
                  C
You got nothin on me

    C      G       D
Now I know who you are 
                  C
You got nothin on me
  G                 D
I see I should have known it from the start (you got nothin’ on me)
C         G       D
You can't tell me lies, don't even try
      C     Cm     G
'Cause this is goodbye, goodbye
    C      G       D
Now I know who you are 
                  C
You got nothin on me
  G                 D
I see I should have known it from the start (you got nothin’ on me)
C         G       D
You can't tell me lies, don't even try
      C     Cm     G
'Cause this is goodbye, goodbye

___________________________________________________________________________



04. Falling Over Me (feat. Jon McLaughlin)

Chords used:
G#/C -  x365xx
F#/Bb - x143xx
E/G# -  476xxx


   E   A   E    A  
e|-----------------|
B|-----------------|
G|-----9-----9-8---|
D|---9-----9-----9-| x4
A|-7-----7---------|
E|-----------------|

Piano:
e|-14-12------14-12--16-|
B|--------12------------|
G|----------------------|
D|----------------------|
A|----------------------|
E|----------------------|


     E       A                    E   A
I'm standing in the center of the room
    E             A              E    A
I’m watching boys follow girls’ perfume
E            A              C#m   D
All is as it should be I assume
  F#m                      B
Except for the distance between me and you

        E            A              E     A
You're standing as a flower on the wall
E				A		    E     A
The room is still but we’re about to fall
    B				  A
And all the names that brought us here
F#/Bb        B
Simply fade away

E		A
Who you are is falling over me
  C#m           A
(Who you are is falling over me)
E		     A
Who you are is everything I need
C#m              A           G#/C
(Who you are is everything I need)
C#m             B            A           B       E    C#m
I'm hoping, I’m waiting, I’m praying you are the one
A               E/G#         F#m         B
I'm hoping, I’m waiting, I’m praying you are the one


E   A   E   C#m A

  E                 A                 E      A
I can't belive that night turned into today
E                   A                E      A
I used the line you were supposed to say
B                      A
And all the names that brought us here
F#/Bb          B
Now we have to thank


E		A
Who you are is falling over me
  C#m           A
(Who you are is falling over me)
E		     A
Who you are has got me on my kness
C#m              A           G#/C
(Who you are has go me on my kness)
C#m             B            A           B        
I'm hoping, I’m waiting, I’m praying you are the one

E/G#				A
    If you are I will wait, I will follow
B              C#m
  I'm here to stay
E/G#		           A
   As long as we're promised tomorrow
B            
I promise you today
F#m     A    F#m   B
   I'll wait, I’ll wait


E		A
Who you are is falling over me
  C#m           A
(Who you are is falling over me)
E		     A
Who you are has got me on my kness
C#m              A           G#/C
(Who you are has got me on my knees)
C#m             B            A           B       E    C#m
I'm hoping, I’m waiting, I’m praying you are the one
A               E/G#         F#m         B        E  A E A
I'm hoping, I’m waiting, I’m praying you are the one
            E  A E A
You are the one

___________________________________________________________________________


05. Quiet

Caug - x345xx
Csus - x33010

C                        Caug
  I hear what you're not saying
                Csus
It's driving me crazy
                     F
It's like we stopped breathing in this room
C				    Caug
We're both the last to believing
   Csus
I know what you're thinking
             F
I wish you'd make your move


Verses Riff:
          C                Caug             Csus                F
e|-----------------|-----------------|-----------------|-----------------|
B|-----------------|-----------------|-----------------|-----------------|
G|---5---5---5---5-|---5---5---5---5-|---5---5---5---5-|---5---5---5---5-|
D|-----------------|-4---4---4---4---|-5---5---5---5---|-3---3---3---3---|
A|-3---3---3---3---|-----------------|-----------------|-----------------|
E|-----------------|-----------------|-----------------|-----------------|
          x2                x2               x2                 x2



C				G#
It's much too quiet in here
      Am					F        Fm	  
I wanna disappear, I’m hearing myself thinking too clear
C                 	    G#
It's much too quiet in here
                Am					 F       Fm
Make it all go away, why can't we break the silence finally


C				G#
It's much too quiet in here
      Am					F        Fm	  
I wanna disappear, I’m hearing myself thinking too clear
C                 	    G#
It's much too quiet in here
                Am					 F       Fm
Make it all go away, why can't we break the silence finally

C					    Caug
  It's like you know where I’m going
   Csus			F         G#
You follow me home but I never invite you inside
 C				   Caug
  I see what you're not showing
 		   Csus			     F           G#
I've got you alone but the air is so still it’s weird

C				G#
It's much too quiet in here
      Am					F        Fm	  
I wanna disappear, I’m hearing myself thinking too clear
C                 	    G#
It's much too quiet in here
                Am					 F       Fm
Make it all go away, why can't we break the silence finally

F							G
  Don't stop, don't stop telling me goodbye
						C/E
Just promise you'll kiss me goodnight
  		F
What’s taking you so long?
F						G
  Don't tell me you're not gonna try
					  C/E
The tension’s building in my mind
   F				Fm
I wanna scream and I know why


C				G#
It's much too quiet in here
      Am					F        Fm	  
I wanna disappear, I’m hearing myself thinking too clear
C                 	    G#
It's much too quiet in here
                Am					 F       Fm
Make it all go away, why can't we break the silence finally

C      G#
                Am
Make it all go away 
F                 C
It's too quiet in here

____________________________________________________________________________


06. Catch Me 

e|--------------------------------------------|
B|----9---9---9---9----9---9---9---9----------|
G|----9---9---9---9----9---9---9---9----------|
D|--7---7---7---7-----------------------------|    x2
A|-------------------7---7---7---7------------|
E|--------------------------------------------|
   Before I fall   too fast
   Kiss me quick   make it last

e|-------------------------------------------------------------|
B|----5---5---5---5---4---4---4---4---0---0---0---0---0---0----|
G|----6---6---6---6---4---4---4---4---6---6---6---6---8---8----|
D|----6---6---6---6---4---4---4---4---7---7---7---7---9---9----|
A|--4---4---4---4----------------------------------------------|
E|------------------4---4---4---4---5---5---5---5---7---7---7--|
   So I can see how badly this will hurt me when you say goodbye

e|--------------------------------------------|
B|----9---9---9---9----9---9---9---9----------|
G|----9---9---9---9----9---9---9---9----------|
D|--7---7---7---7-----------------------------|    x2
A|-------------------7---7---7---7------------|
E|--------------------------------------------|
   Keep it sweet   keep it slow
   Let the future pass and don’t let go

e|-------------------------------------------------------|
B|----5---5---5---5---4---4---4---4---0---0---0---0---0--|
G|----6---6---6---6---4---4---4---4---6---6---6---6---8--|
D|----6---6---6---6---4---4---4---4---7---7---7---7---9--|
A|--4---4---4---4----------------------------------------|
E|------------------4---4---4---4---5---5---5---5-----7--|
  But tonight I could fall too soon under this beautiful moonlight

e|-------------------------------------------|
B|-------------------------------------------|
G|-----0---0-----0---0-----9---9-----0---0---|
D|-----6---6-----8---8-----9---9-----8---8---| 
A|-----7---7-----9---9---7---7-------9---9---| 
E|---5---5-----7---7---------------7---7-----|
  But you’re so hypnotizing; you’ve got me laughing while I sing
  
e|-----------------------------------------|
B|-----------------------------------------|
G|-----0---0-----0---0-----9---9---9---9---|
D|-----6---6-----8---8-----9---9---9---9---| 
A|-----7---7-----9---9---7---7---7---7-----| 
E|---5---5-----7---7-----------------------|
You’ve got me smiling in my sleep


e|-------------------------------------------|
B|-------------------------------------------|
G|-----0---0-----0---0-----9---9-----0---0---|
D|-----6---6-----8---8-----9---9-----8---8---| 
A|-----7---7-----9---9---7---7-------9---9---| 
E|---5---5-----7---7---------------7---7-----|
   And I can see this unraveling; your love is where I’m falling

e|-----------------------------------------|
B|-----------------------------------------|
G|-----0---0-----0---0-----9---9---9---9---|
D|-----6---6-----8---8-----9---9---9---9---| 
A|-----7---7-----9---9-----7---7---7---7---| 
E|---5---5-----7---7-----0---0---0-----0---|
              So please don’t catch me


e|--------------------------------------------|
B|----9---9---9---9----9---9---9---9----------|
G|----9---9---9---9----9---9---9---9----------|
D|--7---7---7---7-----------------------------|    x2
A|-------------------7---7---7---7------------|
E|--------------------------------------------|
   See this heart    won’t settle down
   Like a child running scared from a clown

e|-------------------------------------------------------------|
B|----5---5---5---5---4---4---4---4---0---0---0---0---0---0----|
G|----6---6---6---6---4---4---4---4---6---6---6---6---8---8----|
D|----6---6---6---6---4---4---4---4---7---7---7---7---9---9----|
A|--4---4---4---4----------------------------------------------|
E|------------------4---4---4---4---5---5---5---5---7---7---7--|
I’m terrified of what you do my stomach screams just when I look at you


e|--------------------------------------------|
B|----9---9---9---9----9---9---9---9----------|
G|----9---9---9---9----9---9---9---9----------|
D|--7---7---7---7-----------------------------|    x2
A|-------------------7---7---7---7------------|
E|--------------------------------------------|
   Run far away      So I can breathe
   Even though you’ve far from suffocating me

e|-------------------------------------------------------------|
B|----5---5---5---5---4---4---4---4---0---0---0---0---0---0----|
G|----6---6---6---6---4---4---4---4---6---6---6---6---8---8----|
D|----6---6---6---6---4---4---4---4---7---7---7---7---9---9----|
A|--4---4---4---4----------------------------------------------|
E|------------------4---4---4---4---5---5---5---5---7---7---7--|
 I can’t set my hopes too high cause every hello ends with a goodbye

e|-------------------------------------------|
B|-------------------------------------------|
G|-----0---0-----0---0-----9---9-----0---0---|
D|-----6---6-----8---8-----9---9-----8---8---| 
A|-----7---7-----9---9---7---7-------9---9---| 
E|---5---5-----7---7---------------7---7-----|
  But you’re so hypnotizing; you’ve got me laughing while I sing
  
e|-----------------------------------------|
B|-----------------------------------------|
G|-----0---0-----0---0-----9---9---9---9---|
D|-----6---6-----8---8-----9---9---9---9---| 
A|-----7---7-----9---9---7---7---7---7-----| 
E|---5---5-----7---7-----------------------|
     You’ve got me smiling in my sleep

e|-------------------------------------------|
B|-------------------------------------------|
G|-----0---0-----0---0-----9---9-----0---0---|
D|-----6---6-----8---8-----9---9-----8---8---| 
A|-----7---7-----9---9---7---7-------9---9---| 
E|---5---5-----7---7---------------7---7-----|
   And I can see this unraveling; your love is where I’m falling

e|-----------------------------------------|
B|-----------------------------------------|
G|-----0---0-----0---0-----9---9---9---9---|
D|-----6---6-----8---8-----9---9---9---9---| 
A|-----7---7-----9---9-----7---7---7---7---| 
E|---5---5-----7---7-----0---0---0---0-----|
              But please don’t catch me

e|------------------------------------|
B|----5---5---5---5---0---0-----------|
G|----6---6---6---6---8---8-----------|
D|----6---6---6---6---9---9---10--10--|
A|--4---4---4---4-------------9---9---|
E|------------------7---7---8---8-----|
   So now you see, why I’m scared,


e|----------------------------|
B|-----5---5---0---0---0---0--|
G|-----6---6---8---8---6---6--|
D|-----6---6---9---9---7---7--|
A|---4---4--------------------|
E|-----------7---7---5---5----|
  I can’t open up my heart without a care

e|-------------------------------------------------------------|
B|-------------------------------------------------------------|
G|---2---2---2---2---4---4---4---4---5---5---5---5---7~~-------|
D|---4---4---4---4---6---6---6---4---7---7---7---7---9~~-------|
A|---4---4---4---4---6---6---6---6---7---7---7---7---9~~-------|
E|-2---2---2---2---4---4---4---4---5---5---5---5-----7~~-------|
But here I go, it’s what I feel, and for the first time in my life I know it’s real

e|--------x------------x------------x-----------x---|
B|--------x------------x------------x-----------x---|
G|-----0--x---------0--x---------9--x--------0--x---|
D|-----6--x---------8--x---------9--x--------8--x---| 
A|-----7--x---------9--x-------7-7--x--7-----9--x---| 
E|---5----x---5---7----x---7--------x------7----x---|
  But you’re so hypnotizing; you’ve got me laughing while I sing
  
e|-----------x------------x------------------------|
B|-----------x------------x-------0-0-0-0-0-0-0-0--|
G|--------0--x---------0--x-------9-9-9-9-9-9-9-9--|
D|--------6--x---------8--x-------9-9-9-9-9-9-9-9--|
A|--------7--x---------9--x-------7-7-7-7-7-7-7-7--|
E|--7---5----x---5---7----x---7--------------------|
      You’ve got me smiling in my sleep

e|--0000-0000-0000-0000--|
B|--0000-0000-5555-0000--|
G|--6666-8888-6666-8888--|     
D|--7777-9999-6666-9999--|      x3
A|--7777-9999-4444-9999--|
E|--5555-7777------7777--|
 And I can see this unraveling; your love is where I’m falling
 So please don’t catch me
 If this is love please don’t break me 


e|--0~--0~--0~--|
B|--0~--0~--0~--|
G|--6~--8~--9~--|
D|--7~--9~--9~--|
A|--7~--9~--7~--|
E|--5~--7~------|
  I’m giving up so just catch me

____________________________________________________________________________


07. Every Time You Lie
Tuning: Capo on 1st
 
 Bm7  Em7   A7  D   G   Gm  D7  B
e|-2---0---0---2---3---3---2---2-|
B|-3---3---2---3---3---3---1---4-|
G|-4---0---0---2---4---3---2---4-|
D|-4---2---2---0---5---5---0---4-|
A|-2---2---0---x---5---5---x---2-|
E|-2---0---x---x---3---3---x---2-|

Bm7  Em7  A7  D    x4

        Bm7          Em7
Now you told me on a sunday
         A7          D
That it wasn't gonna work
  Bm7            Em7
I tried to cry myself to sleep
          A7              D
'Cause it was supposed to hurt

   Bm7                Em7
We stand next to the fire 
       A7                D
As the flame was burning out
  Bm7                Em7
I knew what you were thinking
             A7      D
Before you'd say it aloud

G                Gm
Don't say you're sorry
       D
'Cause I'm not even breaking
G          Gm        Em7                A7
You're not worth the time that this is taking

Bm7    Em7
I knew better
        A7               D
Than to let you break my heart
    Bm7               Em7
The soul you'll never see again 
A7               D
Won't be showing scars
Bm7       Em7
You still love her
      A7             D
I can see it in your eyes
    Bm7                Em7       
The truth is all that I can hear
A7            D  Bm7 Em7
Everytime you lie
A7            D  Bm7 Em7
Everytime you lie
A7            D
Everytime you lie

  Bm7              Em7
I woke up the next morning
       A7          D
With a smile on my face
      Bm7          Em7
And a long list of gentlemen
 A7                D
Happy to take your place
     Bm7           Em7
Less trashier much classier
     A7               D
Than who you prove to be
    Bm7              Em7
How long's it ganna take before
    A7                 D
You see that she's no me, oh no

Bm7    Em7
I knew better
        A7                D
Than to let you break my heart
    Bm7               Em7
The soul you'll never see again 
A7               D
Won't be showing scars
Bm7        Em7
You still love her
      A7             D
I can see it in your eyes
    Bm7               Em7      
The truth is all that I can hear
A7             D
Everytime you lie

   D7       B
At night, awake
          Em7                      A7
I will be sleeping till morning breaks
                      D      D7       B
That's the price you pay for your mistakes
           Em7      A7
Goodbye to cheating

   G                Gm
So don't say you're sorry 
       D             Gm
'Cause I'm not gonna listen

Bm7    Em7
I knew better
        A7               D
Than to let you break my heart
    Bm7               Em7
The soul you'll never see again 
A7               D
Won't be showing scars
Bm7       Em7
You still love her
      A7             D
I can see it in your eyes
    Bm7               Em7         
The truth is all that I can hear
A7            D  Bm7 Em
Everytime you lie
A7            D
Everytime you lie
Bm7              Em7
Don't say you're sorry
A7            D
Everytime you lie
Bm7              Em7     A7 D
Don't say you're sorry, oooh

    Bm7               Em7         
The truth is all that I can hear
A7            D
Everytime you lie

____________________________________________________________________________


08. Got Dynamite

E|--------------------------------------------------------------|
B|--------------------------------------------------------------|
G|--------------------------------------------------------------|  x2
D|--------------------------------------------------------------|
A|----------------5/7------------------------6/7--5-------------|
E|--0----0--3--0-------7--5--3--0--0--3--0-----------7--6--5--3-|

E|----------------------------------|
B|----------------------------------|
G|----------------------------------|
D|----------------------------------| x3
A|--------------5/7--5--------------|
E|--0--0--3--0----------7--6--5--3--|
   I can’t take your hand and
   Lead you to the water
   I can’t make you feel what

E|-----------------------------|
B|-----------------------------|
G|-----------------------------|
D|-----------------------------|
A|--------------5/7--5/7--5/7--|
E|--0--0--3--0-----------------|
  You don’t feel but you know you wanna

E|---------------------------------------------------------|
B|---------------------------------------------------------|
G|---------------------------------------------------------|
D|---------------------------------------------------------|
A|--------------5/7--5--------------------------5/7--5-----|
E|--0--0--3--0----------7--6--5--3--0--0--3--0----------7--|
  Find out how to crack me; Log in try to hack me 

E|-----------------------------------------------|
B|-----------------------------------------------|
G|--5--5--5--5--4--4--4--4--7--7--6--6--6--9--9--|
D|--5--5--5--5--4--4--4--4--7--7--6--6--6--9--9--|
A|--3--3--3--3--2--2--2--2--5--5--4--4--4--7--7--|
E|-----------------------------------------------|
  Underneath the surface there’s so much you need to know

E|-------------------------------------------|
B|-------------------------------------------|
G|--5--5--5--5--4--4--4--4--7--7--------9----|
D|--5--5--5--5--4--4--4--4--7--7--------9----|
A|--3--3--3--3--2--2--2--2--5--5--------7----|
E|-------------------------------------------|
  And you might feel like you’re drowning but that’s what I need to let go


E|-------------------------------------|
B|-------------------------------------|
G|--------------------5-5-5-x----------|
D|--9-9-9-x--x-5-5-5--5-5-5-x--x-4-4-4-|  x4
A|--9-9-9-x--x-5-5-5--3-3-3-x--x-4-4-4-|
E|--7-7-7-x--x-3-3-3-----------x-2-2-2-|
Tell me what you got to break down the walls; you just might need dynamite
Tell me what you got to break down the walls; kick senseless my defences
Tell me what you’re gonna do; I need you to light the fuse
Tell me what you got to break down the walls, just might need dynamite

E|--------------------------------------------------------------|
B|--------------------------------------------------------------|
G|--------------------------------------------------------------|  x2
D|--------------------------------------------------------------|
A|----------------5/7------------------------6/7--5-------------|
E|--0----0--3--0-------7--5--3--0--0--3--0-----------7--6--5--3-|
    Got dynamite
     
E|----------------------------------|
B|----------------------------------|
G|----------------------------------|
D|----------------------------------| x3
A|--------------5/7--5--------------|
E|--0--0--3--0----------7--6--5--3--|
   I can’t paint this picture
   Just so you can hang it
   I can’t wait for you to 

E|-----------------------------|
B|-----------------------------|
G|-----------------------------|
D|-----------------------------|
A|--------------5/7--5/7--5/7--|
E|--0--0--3--0-----------------|
  Understand if you just don’t get it 

E|---------------------------------------------------------|
B|---------------------------------------------------------|
G|---------------------------------------------------------|
D|---------------------------------------------------------|
A|--------------5/7--5--------------------------5/7--5-----|
E|--0--0--3--0----------7--6--5--3--0--0--3--0----------7--|
  Find out how to crack me; Log in try to hack me 

E|-----------------------------------------------|
B|-----------------------------------------------|
G|--5--5--5--5--4--4--4--4--7--7--6--6--6--9--9--|
D|--5--5--5--5--4--4--4--4--7--7--6--6--6--9--9--|
A|--3--3--3--3--2--2--2--2--5--5--4--4--4--7--7--|
E|-----------------------------------------------|
  Underneath the surface there’s so much you need to know

E|-------------------------------------------|
B|-------------------------------------------|
G|--5--5--5--5--4--4--4--4--7--7--------9----|
D|--5--5--5--5--4--4--4--4--7--7--------9----|
A|--3--3--3--3--2--2--2--2--5--5--------7----|
E|-------------------------------------------|
  And you might feel like you’re drowning but that’s what I need to let go


E|-------------------------------------|
B|-------------------------------------|
G|--------------------5-5-5-x----------|
D|--9-9-9-x--x-5-5-5--5-5-5-x--x-4-4-4-|  x4
A|--9-9-9-x--x-5-5-5--3-3-3-x--x-4-4-4-|
E|--7-7-7-x--x-3-3-3-----------x-2-2-2-|
Tell me what you got to break down the walls; you just might need dynamite
Tell me what you got to break down the walls; kick senseless my defences
Tell me what you’re gonna do; I need you to light the fuse
Tell me what you got to break down the walls, just might need dynamite

C          G
  When the walls come
         D
crashing down
  Bm
I hope your standing
                  C
right in front of me
         G
Where my past lies
     D    Bm
all around
C
 Cause all you need
G
  to save me
D
  is to intervene
C              G
  And make the walls
              D   C(hold)
come crashing down

E|-------------------------------------|
B|-------------------------------------|
G|--------------------5-5-5-x----------|
D|--9-9-9-x--x-5-5-5--5-5-5-x--x-x-x-x-|
A|--9-9-9-x--x-5-5-5--3-3-3-x--x-x-x-x-|
E|--7-7-7-x--x-3-3-3-----------x-x-x-x-|          
  I got dynamite

E|-------------------------------------|
B|-------------------------------------|
G|--------------------5-5-5-x----------|
D|--9-9-9-x--x-5-5-5--5-5-5-x--x-4-4-4-|  x4
A|--9-9-9-x--x-5-5-5--3-3-3-x--x-4-4-4-|
E|--7-7-7-x--x-3-3-3-----------x-2-2-2-|
Tell me what you got to break down the walls; you just might need dynamite
Tell me what you got to break down the walls; kick senseless my defences
Tell me what you’re gonna do; I need you to light the fuse
Tell me what you got to break down the walls, just might need dynamite


E|--------------------------------------------------------------|
B|--------------------------------------------------------------|
G|--------------------------------------------------------------|  x2
D|--------------------------------------------------------------|
A|----------------5/7------------------------6/7--5-------------|
E|--0----0--3--0-------7--5--3--0--0--3--0-----------7--6--5--3-|
  Got dynamite                Got dynamite

____________________________________________________________________________


09. Stop the World
Tuning: Capo 6th

G     Am  C     F   x2

G                 Am
I don't know why, I don't know why
F
I'm so afraid (so afraid)
G                 Am
I don't know how, I don't know how
F
To fix the pain (fix the pain)
     G              Am
We're livin' a lie, livin' a lie
      F
This needs to change (need to change)
G                        Am
'Cause we're out of time, we're out of time,
F
And it's still the same

                   G         
We can't stop the world
            Am      C         F
But there's so much more that we can do.
                    G         Am      C       F
You can't stop this girl from falling more in love with you.
            G                 Am              C        F
You said nobody has to know, give us time to grow, and take it slow.
                     G          
But I’s stop the world
        Am      C        F
If they finally let us be alone, let us be alone

G   Am  C    F 

G                  Am
Hearin' the noise, hearin' the noise
     F
From all around (from all around)
    G                Am
And I'm on the edge, I'm on the edge
   F
Of breakin' down (breakin' down)
     G                 Am
Like Bonnie and Clyde, let’s find a ride
    F
And ditch this town.
G                 Am
To keep it alive, keep it alive
F
Don't make a sound


G         
We can't stop the world
            Am      C         F
But there's so much more that we can do.
                    G         Am      C       F
You can't stop this girl from falling more in love with you.
            G                 Am              C        F
You said nobody has to know, give us time to grow, and take it slow.
                     G          
But I’d stop the world
        Am      C        F
If they finally let us be alone, let us be

   G              Am            F
I never wanna take that final look
     G             Am                   F
I’ll turn another page, won’t close the book

G         
We can't stop the world
            Am      C         F
But there's so much more that we can do.
                    G         Am      C       F
You can't stop this girl from falling more in love with you.
            G                 Am              C        F
You said nobody has to know, give us time to grow, and take it slow.
                     G          
But I’d stop the world
        Am      C      F                    G    Am  C     F
If they finally let us be alone, let us be alone
          G     Am     C      F
Let us be alone………………………
           G   Am     F
Let us be alone





10. World of Chances
Tuning: Capo on 3rd

Em    C   G   D    X2

Em             C          G          D
You've got a face for a smile, you know 
Em            C                   G           D
A shame you waste it When you're breaking me slowly but 
Em          C         G      D
I’ve got a world of chances, for you 
Em          C         G      D
I’ve got a world of chances, for you
Em          C         A7
I've got a world of chances 
                     C
Chances that you're burning through. 

Em         C         G  D
I've got a paper and pen 
Em        C          G
I go to write a goodbye 
           D
And thats when I know 
 
     Em      C        G       D
I’ve got a world of chances, for you 
Em          C         G      D
I’ve got a world of chances, for you
Em          C         A7
I've got a world of chances 
                     C
Chances that you're burning through.

Em       A7                D
Ohhhhhh I'm going my own way 
                        G
My faith has lost its strength again 
Em           A7                     D
And ohhhhhh It's been too hard to say 
                       G
We're falling off the edge again 
            D
We're at an end
            G
We're at an end

Em    C    G    D

Em            C           G   D
Maybe you'll call me someday 
Em           C              G         D
Hear the operator say the number’s no good and that 

Em        C         G       D
She has a world of chances, for you 
Em         C         G       D
She had a world of chances, for you 
Em         C         A7
She had a world of chances 
                  C              A7
Chances you were burning through 
                 C              A7
Chances you were burning through
                 C              
Chances you were burning through

Em   C   G    D

Em            C           G          D
You've got a face for a smile, you know


___________________________________________________________________________


11. Remember December
Tuning: Capo 1

   Em     D    G    C         Em    D    G     C
e|---------------------------------------------------------------------------|
B|---------------------------------------------------------------------------|
G|------------------------------------------------4--------------------------|
D|------2----4----5----------------2----4----5-------------------------------|
A|---------------------3-----------------------------------------------------|
E|---------------------------------------------------------------------------|


  Em     D          C
I feel a separation coming on
          Em       D              C
'Cause I know     you want to be moving on
Em               D
I wish it would snow tonight
       C            Am
You'd pull me in, avoid a fight
          Em         D          C
'Cause I feel     a separation coming on

Em           D                C
Just prove   that there is nothing left to try
            Em         D              C
‘Cause the truth, I'd rather we just both deny
     Em                   D
You kissed me with those open eyes
     C                Am              Em
It says so much, it's no surprise to you,
     D                  C
But I've got something left inside...

    D          Em         C
Don't surrender, surrender, surrender,
          D          Em         C
Please remember, remember, December
               G                          C
We were so in love back then, now you're listening
   Am                   Em
To what they say, Don't go that way
   D         Em         C
Remember, remember, December
          Em   D G C
Please remember
          Em   D G C
Don't surrender...

     Em           D                C
You said     you wouldn't let them change your mind
              Em      D             C
'Cause when we're    together fire melts the ice
      Em                D
Our hearts are both on overdrive
 C                 Am
Come with me let's run tonight
      Em             D            C
Don't let     these memories get left behind

          D          Em         C
Don't surrender, surrender, surrender,
          D          Em         C
Please remember, remember, December
               G                          C
We were so in love back then, now you're listening
   Am                   Em
To what they say, Don't go that way
    D         Em        C
Remember, remember, December, please remember
	
RIFF (Guitar 2)
   Em                  Am   Em     Em                  D
e|----------------------------|e|--------------------------|
B|----------------------------|B|--------------------------|
G|----------------------------|G|--------------------------|  x5
D|----------------------------|D|-----------------------0--|
A|-----------------------3-2--|A|--------------------------|
E|--0-0-3-0-3-3-0-0-3-3-0------|E|—0-0-3-0-3-3-0-0-3-3-0----|
I remember   us together
With a promise    of forever
We can do this,  fight the pressure
Please remember   December

  Em   D   G   C       Em   D   G    C 
e|---------------------------------------|
B|---------------------------------------|
G|--9---11--12---------9---11--12---14b--|
D|--------------10-----------------------|
A|---------------------------------------|
E|---------------------------------------|


(no chord)        Em         C
Don't surrender, surrender, surrender,
          D          Em         C
Please remember, remember, December
               G                          C
We were so in love back then, now you're listening
    Am                  Em
To what they say, Don't go that way
   D        Em         C
Remember, remember, December

    Em                  Am   Em     Em                    D
e|----------------------------|e|----------------------------|
B|----------------------------|B|----------------------------|
G|----------------------------|G|----------------------------|
D|----------------------------|D|-----------------------0-(2)|  x2
A|-----------------------3-2--|A|----------------------------|
E|—0-0-3-0-3-3-0-0-3-3-0------|E|—0-0-3-0-3-3-0-0-3-3-0------|
           Please Remember
		Don’t surrender




12. Everything You’re Not
Tuning: Capo 1

G   Am    C

          G                     Am
I've been bruised and I’ve been broken
 C       					    G      Am      C
Can't belive that I put up with all this     pain
     G                Am           C
I've been used and I was choking on the promise
   G     Am   C
I would never fall again

  Em      D/F#   G             C
I used to sing to your twisted sympohony
    Em         D/F#   G                   C
The words that had me trapped inside your misery
    Em    D/F#     G            C       Cm                
But now I know the reason why I couldn’t breathe

      Em    D       G                 C
Cause all I want is everything you’re not
   Em           D                   C				Am
So go ahead and slam the door cause you can’t shut me out
    Em   D        G                   C
And no i don't, I don't care what you say
      Am            G/B          C
Cause all I really, all I really want
D
Is everything you're not

Em      D             Em
  Never gonna break my heart again
G        Am             C
  Never gonna see your face again (Everything you’re not)
Em      D               Em       G        Am (hold)
  Never wanna feel this way again

     G               Am
Your darkness was my weakness 
        C                             G      Am     C
But it turns out that it only went so deep     deeeep
   G           Am               C                          G   Am    C
A meaningless diversion that is all that you ever meant to me     meeee

    Em   D/F#  G                C
And I am done with your twisted symphony
    Em         D/F#    G                 C
The words that had  me sound like stolen poetry
  Em       D/F#      G       C      Cm
I tore the pages and I can finally breathe

Em          D       G                 C
Cause all I want is everything you’re not
   Em           D                   C				Am
So go ahead and slam the door cause you can’t shut me out
    Em   D        G                   C
And no i don't, I don't care what you say
      Am            G/B          C
Cause all I really, all I really want
D
Is everything you're not

Em      D              Em
  Never gonna break my heart again
G      Am              C
  Never gonna see your face again

Bm   				    C			
  I want a gentleman who treats me like a queen
Bm				       Em       D    C
  I need respect I need love nothing in between
Bm				    Bb  Am   
  I will not spell it out for you if you can’t see
G/B       C                     G/B
Cause you're not worth it, you don’t deserve me
 Am   D                  Em   D   Am
And now I'm gone, everything you’re not not not
			   Em   D    C 
Everything you're not not not     1 2 3!

Em    	  D       G                 C
Cause all I want is everything you’re not
   Em           D                   C				Am
So go ahead and slam the door cause you can’t shut me out
    Em   D        G                   C
And no i don't, I don't care what you say
      Am            G/B          C
Cause all I really, all I really want
D
Is everything you're not

Em      D             Em
  Never gonna break my heart again
G        Am             C
  Never gonna see your face again (Everything you’re not)
Em      D               Em       G        Am (hold)
  Never wanna feel this way again


___________________________________________________________________________

 
14. So Far So Great

E5         C      D         A5
Off to the races, I’m going places
E5         C          D         A5
Might be a long shot, not gonna waste it
E5          C        D         A5         C     B
This is the big break and it’s calling my name, yeah

E           G#m
  So far so great get with it
A                 F#m
  At least that's how I see it
A                 B
Having a dream is just the beginning
E           G#m
  So far so great believe it
A             F#m
  Can't take away this feeling
A              Am
Taking a ride, chance o my side
G#m         F#m
I can't wait, so far so great

E5            C        D          A5
Might need to wing it still gonna bring it
E5        C        D          A5
Not gonna sink low, I’m going swimming
E5          C         D             A5     C     B
Swing for the fences, sky’s not the limit today, yeah

E           G#m
  So far so great get with it
A                 F#m
  At least that's how I see it
A                 B
Having a dream is just the beginning
E           G#m
  So far so great believe it
A             F#m
  Can't take away this feeling
A              Am
Taking a ride, chance o my side
G#m         F#m
I can't wait, so far so great

C#m        G#/C                A
  Everyone says don't get your hopes up
          Am        F#/Bb  B  G#/C  C#m
Learn the ropes and climb the lad--der
   G#/C			 A
I know in the end that just being here is the best
       B               E5 C D A5              E5    C    B
And it only gets better          It only gets better

E           G#m
  So far so great get with it
A                 F#m
  At least that's how I see it
A                 B
Having a dream is just the beginning
E           G#m
  So far so great believe it
A             F#m
  Can't take away this feeling
A              Am
Taking a ride, chance on my side
G#m         F#m
I can't wait, so far so great
A         B               E5  C   D  A5
  I can't wait, so far so great           
E5    C   D   A5    E5
                 Yow!
comments
print report bad tab
I want to post or [tab]
guest
You may want to rate the tab now too:
select rating
Please do not post tabs as comments. Select "correction" instead!