Oops, an error
Loading. Please wait.

La La Land Tab

version 1
version 1

Whole song

Interactive

28,081 views 3 this week
5 commentsread comments
1 2 3 4 5
x 5
add to favorites
launch autoscroll
font size
0
reset
how to read this tab
guitar tuner
Autoscroll
slow
fast
+/-
esc
set tempo
stop
Help us to improve Ultimate-Guitar.com Take our survey!
×
Author
Difficulty
novice
missystar100@gmail.com

-----------
|Strumming|
|x: down  |
|y: up    |
-----------

Intro:
e|--------------------------|
B|--------------------------|
G|--------------------------|
D|---4--4--4--4-4-4--4--4--4|x4
A|---4--4--4--4-4-4--4--2--2|
E|---2--2--2--2-2-2--2--2--2|
     x  x  x  x y x  x  x  x

Verse #1:
 (I am confident but I still have my moments)
e|---------------------------------------------|
B|---------------------------------------------|
G|---------------------------------------------|
D|---4--4--4--4-4-4--4--4--4--4--4--4-4-4--4--4|
A|---4--4--4--4-4-4--4--2--4--4--4--4-4-4--4--2|
E|---2--2--2--2-2-2--2--2--2--2--2--2-2-2--2--2|
     x  x  x  x y x  x  x  x  x  x  x y x  x  x

 (Baby, that's just me)
e|---2--2--2--2-------------------------------------|
B|---3--3--3--3-------------------------------------|
G|---2--2--2--2--1--1--1--1-------------------------|
D|---------------2--2--2--2--4--4--4--4-4-4--4--4--4|
A|---------------2--2--2--2--4--4--4--4-4-4--4--2--2|
E|---------------------------2--2--2--2-2-2--2--2--2|
     x  x  x  x  x  x  x  x  x  x  x  x y x  x  x  x

 (I'm not a super model, I still eat McDonalds)
e|---------------------------------------------|
B|---------------------------------------------|
G|---------------------------------------------|
D|---4--4--4--4-4-4--4--4--4--4--4--4-4-4--4--4|
A|---4--4--4--4-4-4--4--2--4--4--4--4-4-4--4--2|
E|---2--2--2--2-2-2--2--2--2--2--2--2-2-2--2--2|
     x  x  x  x y x  x  x  x  x  x  x y x  x  x

 (Baby, that's just me)
e|---2--2--2--2-------------------------------------|
B|---3--3--3--3-------------------------------------|
G|---2--2--2--2--1--1--1--1-------------------------|
D|---------------2--2--2--2--4--4--4--4-4-4--4--4--4|
A|---------------2--2--2--2--4--4--4--4-4-4--4--2--2|
E|---------------------------2--2--2--2-2-2--2--2--2|
     x  x  x  x  x  x  x  x  x  x  x  x y x  x  x  x

Chorus:
 (Some may say I need to be afraid)
e|---------------------------------------------|
B|---2--2--2--2--------------------------------|
G|---2--2--2--2--1--1--1--1--------------------|
D|---2--2--2--2--2--2--2--2--4--4--4--4--------|
A|---------------2--2--2--2--4--4--4--4--------|
E|---------------------------2--2--2--2--------|
     x  x  x  x  x  x  x  x  x  x  x  x

 (of losing everything, because of where I've)
e|---------------2--2--2--2--2--2--2--2|
B|---------------3--3--3--3--3--3--3--3|
G|---1--1--1--1--2--2--2--2--2--2--2--2|
D|---2--2--2--2------------------------|
A|---2--2--2--2------------------------|
E|-------------------------------------|
     x  x  x  x  x  x  x  x  x  x  x  x

 (had my start and where I made my name)
e|---------------------------------------------|
B|---2--2--2--2--------------------------------|
G|---2--2--2--2--1--1--1--1--------------------|
D|---2--2--2--2--2--2--2--2--4--4--4--4--------|
A|---------------2--2--2--2--4--4--4--4--------|
E|---------------------------2--2--2--2--------|
     x  x  x  x  x  x  x  x  x  x  x  x

 (But everything's the same, in the La La Land)
e|---------------2--2--2--2--2--2--2--2|
B|---------------3--3--3--3--3--3--3--3|
G|---1--1--1--1--2--2--2--2--2--2--2--2|
D|---2--2--2--2------------------------|
A|---2--2--2--2------------------------|
E|-------------------------------------|
     x  x  x  x  x  x  x  x  x  x  x  x

 (Machine.....Machine)
e|--------------------------|
B|--------------------------|
G|--------------------------|
D|---4--4--4--4-4-4--4--4--4|
A|---4--4--4--4-4-4--4--2--2|
E|---2--2--2--2-2-2--2--2--2|
     x  x  x  x y x  x  x  x

Verse #2:
 (Who said, that I can't wear my, Converse with my dress)
e|---------------------------------------------|
B|---------------------------------------------|
G|---------------------------------------------|
D|---4--4--4--4-4-4--4--4--4--4--4--4-4-4--4--4|
A|---4--4--4--4-4-4--4--2--4--4--4--4-4-4--4--2|
E|---2--2--2--2-2-2--2--2--2--2--2--2-2-2--2--2|
     x  x  x  x y x  x  x  x  x  x  x y x  x  x

 (Baby, that's just me)
e|---2--2--2--2-------------------------------------|
B|---3--3--3--3-------------------------------------|
G|---2--2--2--2--1--1--1--1-------------------------|
D|---------------2--2--2--2--4--4--4--4-4-4--4--4--4|
A|---------------2--2--2--2--4--4--4--4-4-4--4--2--2|
E|---------------------------2--2--2--2-2-2--2--2--2|
     x  x  x  x  x  x  x  x  x  x  x  x y x  x  x  x

 (Who said, I can't be single, and have to go out and mingle)
e|------------------------------------------------B---|
B|------------------------------------------------R---|
G|------------------------------------------------E---|
D|---4--4--4--4-4-4--4--4--4--4--4--4-4-4--4--4---A---|
A|---4--4--4--4-4-4--4--2--4--4--4--4-4-4--4--2---K---|
E|---2--2--2--2-2-2--2--2--2--2--2--2-2-2--2--2---~---|
     x  x  x  x y x  x  x  x  x  x  x y x  x  x (mute)

 (BABY, that's not me!! No, no!!)
e|---2--2--2--2--------------1--1--1--1|
B|---3--3--3--3--------------3--3--3--3|
G|---2--2--2--2--1--1--1--1--2--2--2--2|
D|---------------2--2--2--2------------|
A|---------------2--2--2--2------------|
E|-------------------------------------|
     x  x  x  x  x  x  x  x  x  x  x  x

Chorus:
 (Some may say I need to be afraid)
e|---------------------------------------------|
B|---2--2--2--2--------------------------------|
G|---2--2--2--2--1--1--1--1--------------------|
D|---2--2--2--2--2--2--2--2--4--4--4--4--------|
A|---------------2--2--2--2--4--4--4--4--------|
E|---------------------------2--2--2--2--------|
     x  x  x  x  x  x  x  x  x  x  x  x

 (of losing everything, because of where I've)
e|---------------2--2--2--2--2--2--2--2|
B|---------------3--3--3--3--3--3--3--3|
G|---1--1--1--1--2--2--2--2--2--2--2--2|
D|---2--2--2--2------------------------|
A|---2--2--2--2------------------------|
E|-------------------------------------|
     x  x  x  x  x  x  x  x  x  x  x  x

 (had my start and where I made my name)
e|---------------------------------------------|
B|---2--2--2--2--------------------------------|
G|---2--2--2--2--1--1--1--1--------------------|
D|---2--2--2--2--2--2--2--2--4--4--4--4--------|
A|---------------2--2--2--2--4--4--4--4--------|
E|---------------------------2--2--2--2--------|
     x  x  x  x  x  x  x  x  x  x  x  x

 (But everything's the same, in the La La Land)
e|---------------2--2--2--2--2--2--2--2|
B|---------------3--3--3--3--3--3--3--3|
G|---1--1--1--1--2--2--2--2--2--2--2--2|
D|---2--2--2--2------------------------|
A|---2--2--2--2------------------------|
E|-------------------------------------|
     x  x  x  x  x  x  x  x  x  x  x  x

Bridge:
 (Tell me do you feel the way I feel)
e|--------------------------------|
B|---2----------------------------|
G|---2-----------1----------------|
D|---2-----------2---------------4|
A|---------------2---------------4|
E|-------------------------------2|
     x           x               x

(Cuz nothing else is real in the La La Land...)
e|--------------------2-----------1|
B|--------------------3-----------3|
G|----1---------------2-----------2|
D|----2----------------------------|
A|----2----------------------------|
E|---------------------------------|
      x               x           x

(APPEAL!)
{Guitar Solo*}

Chorus:
 (Some may say I need to be afraid)
e|---------------------------------------------|
B|---2--2--2--2--------------------------------|
G|---2--2--2--2--1--1--1--1--------------------|
D|---2--2--2--2--2--2--2--2--4--4--4--4--------|
A|---------------2--2--2--2--4--4--4--4--------|
E|---------------------------2--2--2--2--------|
     x  x  x  x  x  x  x  x  x  x  x  x

 (of losing everything, because of where I've)
e|---------------2--2--2--2--2--2--2--2|
B|---------------3--3--3--3--3--3--3--3|
G|---1--1--1--1--2--2--2--2--2--2--2--2|
D|---2--2--2--2------------------------|
A|---2--2--2--2------------------------|
E|-------------------------------------|
     x  x  x  x  x  x  x  x  x  x  x  x

 (had my start and where I made my name)
e|---------------------------------------------|
B|---2--2--2--2--------------------------------|
G|---2--2--2--2--1--1--1--1--------------------|
D|---2--2--2--2--2--2--2--2--4--4--4--4--------|
A|---------------2--2--2--2--4--4--4--4--------|
E|---------------------------2--2--2--2--------|
     x  x  x  x  x  x  x  x  x  x  x  x

 (But everything's the same, in the La La Land Machine)
e|---------------2--2--2--2--2--2--2--2|
B|---------------3--3--3--3--3--3--3--3|
G|---1--1--1--1--2--2--2--2--2--2--2--2|
D|---2--2--2--2------------------------|
A|---2--2--2--2------------------------|
E|-------------------------------------|
     x  x  x  x  x  x  x  x  x  x  x  x

 (Well I'm not gonna change, In the La La Land Machine)
e|---------------2--2--2--2--2--2--2--2|
B|---------------3--3--3--3--3--3--3--3|
G|---1--1--1--1--2--2--2--2--2--2--2--2|
D|---2--2--2--2------------------------|
A|---2--2--2--2------------------------|
E|-------------------------------------|
     x  x  x  x  x  x  x  x  x  x  x  x

 (No I will stay the same, In the La La Land...)
e|---------------2--2--2--2--2--2--2--2|
B|---------------3--3--3--3--3--3--3--3|
G|---1--1--1--1--2--2--2--2--2--2--2--2|
D|---2--2--2--2------------------------|
A|---2--2--2--2------------------------|
E|-------------------------------------|
     x  x  x  x  x  x  x  x  x  x  x  x

(MACHINE!!!!!!)
e|---------------------------------------------|
B|---2--2--2--2--------------------------------|
G|---2--2--2--2--1--1--1--1--------------------|
D|---2--2--2--2--2--2--2--2--4--4--4--4--------|
A|---------------2--2--2--2--4--4--4--4--------|
E|---------------------------2--2--2--2--------|
     x  x  x  x  x  x  x  x  x  x  x  x

e|---------------2--2--2--2--2--2--2--2|
B|---------------3--3--3--3--3--3--3--3|
G|---1--1--1--1--2--2--2--2--2--2--2--2|
D|---2--2--2--2------------------------|
A|---2--2--2--2------------------------|
E|-------------------------------------|
     x  x  x  x  x  x  x  x  x  x  x  x

Outro:
(Won't change anything of my life)
e|2--2--2--2--2--2--2--2|
B|3--3--3--3--3--3--3--3|
G|2--2--2--2--2--2--2--2|
D|----------------------|
A|----------------------|
E|----------------------|

((won't change anything of my life))(I'm staying myself tonight)
e|------------------------------------------------------|
B|---2--2--2--2-----------------------------------------|
G|---2--2--2--2--1--1--1--1-----------------------------|
D|---2--2--2--2--2--2--2--2-----------4--4--4--4--------|
A|---------------2--2--2--2-----------4--4--4--4--------|
E|------------------------------------2--2--2--2--------|

((I'm staying myself tonight))
e|2--2--2--2--2--2--2--2|
B|3--3--3--3--3--3--3--3|
G|2--2--2--2--2--2--2--2|
D|----------------------|
A|----------------------|
E|----------------------|

(Laaa laaaaa laaaaaaaa laaaaaaaaaaa...)
e|---------------------------------------------|
B|---2--2--2--2--------------------------------|
G|---2--2--2--2--1--1--1--1--------------------|
D|---2--2--2--2--2--2--2--2--4--4--4--4--------|
A|---------------2--2--2--2--4--4--4--4--------|
E|---------------------------2--2--2--2--------|

(La laaaa laaaaaaa laaaa)
e|---------------2--2--2--2--2--2--2--2|
B|---------------3--3--3--3--3--3--3--3|
G|---1--1--1--1--2--2--2--2--2--2--2--2|
D|---2--2--2--2------------------------|
A|---2--2--2--2------------------------|
E|-------------------------------------|

*Someone know the crazy guitar solo?

COMMENT AND RATE ME!!! =] ♪♥♫
Suggest correction
comments
print report bad tab
5 comments total. Showing first comments.
+2 reply
juavma 41 Feb 22, 2009 10:34 AM

you tab is perfect i think

+1 reply
juavma 41 Feb 22, 2009 10:35 AM

well i'll work on it cuz i really want 2 play that song

+1 reply
juavma 41 Feb 22, 2009 12:35 PM

just miss a litle part on 2nd verse and maybe others

guest
You may want to rate the tab now too:
select rating
Wanna post a correction for this tab? Suggest correction