Oops, an error
Loading. Please wait.

Let It Go Tab

version 2
version 2

Whole song

10,417 views 9 this week
no commentswrite comment
1 2 3 4 5
worth learning
x 3
add to favorites
launch autoscroll
font size
0
reset
how to read this tab
guitar tuner
Tab Pro tools
  • play this tab
  • loop segment
  • change instrument
  • show fretboard
  • metronome
×
Best way to learn
"Let It Go"
Autoscroll
slow
fast
+/-
esc
set tempo
stop
Contributor
Difficulty
intermediate
[Let It Go by Demi Lovato]

Chords by melanderisak
Tab by melanderisak

Standard E Tuning


Chords:
       G   Dsus4  Em7  Cadd2   Am   C    Em   D
E|-----3-----3-----3-----3-----0----0----0----2-|
B|-----3-----3-----3-----3-----1----1----0----3-|
G|-----0-----2-----0-----0-----2----0----0----2-|
D|-----0-----0-----2-----2-----2----2----2----0-|
A|-----2----(0)----2-----3-----0----3----2---(0)|
E|-----3-----x-----0-----x-----x----x----0----x-|

(0) = This note in the D chords does work, it just make it sounds more like a D/A. But 
you may strum it if you know.
x = Don't play / mute if possible
G chord = You can do the G accord with the B string on the 3 fret or on the 0 fret. Both 
works. But for this song use 3 fret. It sounds the best and is easier.
I always prefer this version of all songs I play.



[Intro - 1 Strum per beat]
(This part is piano played in the song, but this works fine if you only have a Guitar)

       G          Dsus4
Let it go, let it go
      Em7          Cadd2
Can't hold it back anymore
       G          Dsus4
Let it go, Let it go
        Em7               Cadd2
Turn my back and slam the door


[Verse - Pluck]

Stave 1:

1. The snow glows white on the mountain tonight
   Not a footprint to be seen
2. The wind is howling like this swirling storm inside
E|--------------------------------------------------|
B|--8-----8-----5-----5-----7-----7-----3-----1-----|
G|--9-----9-----5-----5-----7-----7-----2-----2-----|
D|--------------------------------------------------|
A|--7--7-----7--3--3-----3--5--5-----5--0--0-----0--|
E|--------------------------------------------------|

Stave 2:

1. A kingdom of isolation and it looks like I'm the queen
E|-------------------------------------------------------|
B|--8-----8-----5-----5-----7-----7-----2-----2----------|
G|--9-----9-----5-----5-----7-----7-----2-----2----------|
D|-------------------------------------------------------|
A|--7--7-----7--3--3-----3--5--5-----5--0--0-----0-------|
E|--------------------------------------------------| ---|x2

(The second time, skip stave 2 and replace it with stave 3)

Stave 3:

2. Couldn't keep it in, Heaven knows I tried
E|--------------------------------------------------|
B|--8-----8-----7-----7-----2-----2-----2-----2-----|
G|--9-----9-----7-----7-----2-----2-----2-----2-----|
D|--------------------------------------------------|
A|--7--7-----7--5--5-----5--0--0-----0-----0-----0--|
E|--------------------------------------------------|


[Pre-chorus - Strum Chord, Pluck Notes]

Stave 1:

1. Don't let them in, don't let them see
   Be the good girl you always had to be
E|--2----2----2----2----0----0----0----0--|
B|--3----3----3----3----1----1----1----1--|
G|--2-------------------0-----------------|
D|--0-------------------2-----------------|
A|----------------------3-----------------|
E|----------------------------------------|

Stave 2:

2. Conceal, don't feel, don't let them know
   Well now they know~
E|--2----2----2----2----0----0----0----0----3----|
B|--3----3----3----3----1----1----1----1----3----|
G|--2-------------------0-------------------0----|
D|--0-------------------2-------------------2----|
A|----------------------3-------------------3----|
E|-----------------------------------------------|


[Chorus - Strum]

       G          Dsus4
Let it go, let it go
      Em7          Cadd2
Can't hold it back anymore
       G          Dsus4
Let it go, let it go
        Em7               Cadd2
Turn my back and slam the door
    G        Dsus4
And here I stand
    Em7       Cadd2
And here I'll stay
       G          Dsus4
Let it go, let it go
    Cadd2         Cadd2
The cold never bothered me anyway


[Verse - Strum Palm Muted] (Technically no guitar play here in the song.)
(But here are the chords either way)
Example on how you can play this:
  PM  PM  PM  PM  PM  PM  PM  PM  PM  PM  PM  PM  PM  PM  PM  PM  PM
E|-------------------------------------------------------------------|
B|-----------------1-1-1-1-1-1-1-1-3-3-3-3-3-3-3-3-3-1-1-1-1-1-1-1-1-|
G|-0-0-0-0-0-0-0-0-0-0-0-0-0-0-0-0-2-2-2-2-2-2-2-2-2-2-2-2-2-2-2-2-2-|
D|-2-2-2-2-2-2-2-2-2-2-2-2-2-2-2-2-0-0-0-0-0-0-0-0-0-2-2-2-2-2-2-2-2-|
A|-2-2-2-2-2-2-2-2-3-3-3-3-3-3-3-3-------------------0-0-0-0-0-0-0-0-|
E|-0-0-0-0-0-0-0-0---------------------------------------------------|

Em           C               D                 Am
It's funny how some distance makes everything seem small
Em            C               D                 Am
And the fears that once controlled me can't get to me at all
Em            C               D                Am
Up here in the cold thin air I finally can breathe
Em            D
I know I left a life behind but I'm too relieved to greive


[Chorus - Strum]

       G          Dsus4
Let it go, let it go
      Em7          Cadd2
Can't hold it back anymore
       G          Dsus4
Let it go, let it go
        Em7               Cadd2
Turn my back and slam the door
    G        Dsus4
And here I stand
    Em7       Cadd2
And here I'll stay
       G          Dsus4
Let it go, let it go
    Cadd2         Cadd2
The cold never bothered me anyway


[Bridge - Strum]
G             Dsus4       Em7         Cadd2
Standing - frozen in the life I've chosen
G             Dsus4      Em7         Cadd2
You won't find me, the past is all behind me
G             Dsus4      Em7         Cadd2
Buried in the snow


[Chorus/Outro - Silent, 1 strum]
(Techincally in the song piano plays once for every accord, and guitar jumps in with 1
strum of the last one, Cadd2. But you can take over the Piano part if you like)
There is one tricky part here that I kinda figured out.
The bass goes a different pattern at one part of the song here.
I marked the bass, but playing the whole chord with these might sound weird.
So here I will show how I recommend you to play the chords
You will haft to use a free finger to mute the other strings

Chords:
      G  Dsus4/F  Em7  Cadd2/Eb
E|----3-----3-----3-----3----|
B|----3-----3-----3-----3----|
G|----0-----0-----0-----0----|
D|----x-----x-----x-----1----|
A|----x-----x-----x-----x----|
E|----3-----1-----0-----x----|
I actually have no idea what the real chords are at this part. I think it's actually 
just G, G/F, G/E, G/Eb. But it sounds crap if you only play G G G G with a guitar, you need 
to have the bass. Feel free to write a comment about it if you know.


       G          Dsus4
Let it go, let it go
      Em7          Cadd2
Can't hold it back anymore
       G          Dsus4
Let it go, let it go
        Em7               Cadd2
Turn my back and slam the door
      G       Dsus4/F
And here I stand
      Em7     Cadd2/Eb
And here I'll stay
       G         Dsus4
Let it go, let it go
    Em7           Cadd2
The cold never bothered me anyway~~!!!!

(Continue with G, Dsus4, Em7, Cadd2 until song )

Let it go
And here I'll stay
Let it go, let it go
Oooooh let it go
comments
We did not receive enough feedback on this tab! Please rate:
print report bad tab
1 2 3 4 5
I want to post or [tab]
guest
You may want to rate the tab now too:
select rating
Please do not post tabs as comments. Select "correction" instead!