Oops, an error
Loading. Please wait.

Me Myself And Time Tab

version 1
version 1

Whole song

4,422 views 3 this week
no commentswrite comment
1 2 3 4 5
2 more votes to show rating
add to favorites
launch autoscroll
font size
0
reset
how to read this tab
guitar tuner
Autoscroll
slow
fast
+/-
esc
set tempo
stop
Help us to improve Ultimate-Guitar.com Take our survey!
×
Author
Difficulty
novice
First tab. I'm to lazy to put the strumming patterns so listen to the song for that :P

http://www.youtube.com/watch?v=_bMp-w11gfw <-- The song.

Into/Verse
e|---------------------------------------------------------------------------|
B|---------------------------------------------------------------------------|
G|----------------------8-------6--------------------------------------------|
D|------4-------9-------8-(x8)--6-(x8)---------------------------------------| x2
A|------4-(x8)--9-(x8)--6-------4--------------------------------------------|
E|------2-------7------------------------------------------------------------|

Pre-Chorus
e|---------------------------------------------------------------------------|
B|---------------------------------------------------------------------------|
G|---------------------------------------------------------------------------|
D|-----6~-----9~-------------------------------------------------------------| x2
A|-----6~-----9~-------------------------------------------------------------|
E|-----4~-----7~-------------------------------------------------------------|

Chorus & Post-Chorus
e|---------------------------------------------------------------------------|
B|---------------------------------------------------------------------------|
G|----------------------8-------6--------------------------------------------|
D|------4-------9-------8-(x8)--6-(x8)---------------------------------------| x2
A|------4-(x8)--9-(x8)--6-------4--------------------------------------------|
E|------2-------7------------------------------------------------------------|

Verse
e|---------------------------------------------------------------------------|
B|---------------------------------------------------------------------------|
G|----------------------8-------6--------------------------------------------|
D|------4-------9-------8-(x8)--6-(x8)---------------------------------------| x2
A|------4-(x8)--9-(x8)--6-------4--------------------------------------------|
E|------2-------7------------------------------------------------------------|

Pre-Chorus
e|---------------------------------------------------------------------------|
B|---------------------------------------------------------------------------|
G|---------------------------------------------------------------------------|
D|-----6~-----9~-------------------------------------------------------------| x2
A|-----6~-----9~-------------------------------------------------------------|
E|-----4~-----7~-------------------------------------------------------------|

Chorus & Post-Chorus
e|---------------------------------------------------------------------------|
B|---------------------------------------------------------------------------|
G|----------------------8-------6--------------------------------------------|
D|------4-------9-------8-(x8)--6-(x8)---------------------------------------| x2
A|------4-(x8)--9-(x8)--6-------4--------------------------------------------|
E|------2-------7------------------------------------------------------------|

Bridge
e|---------------------------------------------------------------------------|
B|---------------------------------------------------------------------------|
G|----4-------6------8-------6-----------------------------------------------|
D|----4-(x4)--6-(x4)-8-(x4)--6-(x4)------------------------------------------| x3
A|----2-------4------6-------4-----------------------------------------------|
E|---------------------------------------------------------------------------|

e|---------------------------------------------------------|
B|---------------------------------------------------------|
G|----4-------6------8-------11----------------------------|
D|----4-(x4)--6-(x4)-8-(x4)--11-(x4)-----------------------| x1 [those are 11's. Not ones.]
A|----2-------4------6-------9-----------------------------|
E|---------------------------------------------------------|

Chorus
e|------------------------------------------------------|
B|------------------------------------------------------|
G|----------------------8-------6-----------------------|
D|------4-------9-------8-(x8)--6-(x8)------------------| repeat till the end! :]
A|------4-(x8)--9-(x8)--6-------4-----------------------|
E|------2-------7---------------------------------------|

This was a really fun song to tab. Hope you guys have fun playing it :]


************************************

| /   slide up
| \   slide down
| h   hammer-on
| p   pull-off
| ~   vibrato
| +   harmonic
| x   Mute note
| b   Bend
| pb  Pre-bend
| br  Bend release
| pbr Pre-bend release
| brb Bend release bend

************************************
Suggest correction
Give kudos to tab author, rate the tab!
1 2 3 4 5
comments
print report bad tab
guest
You may want to rate the tab now too:
select rating
Wanna post a correction for this tab? Suggest correction