Oops, an error
Loading. Please wait.

One And The Same bass

932 views 3 this week
no commentswrite comment
1 2 3 4 5
3 more votes to show rating
add to favorites
×
Save as Personal and add changes to this tab that will be seen only by you. Learn more ›
×
You can save this tab as Personal to edit and correct it or add notes. All changes will be seen only by you. Learn more »
launch autoscroll
font size
0
reset
guitar tuner
edit
Autoscroll
slow
fast
+/-
esc
set tempo
stop
Author
Difficulty
-------------------------------------------------------------------------------
			     One and the same - Demi Lovato
-------------------------------------------------------------------------------


Tuning:Standard :D
    Intro* 2 times 
    E E E E    B A(C# D C# D C#)E E E E        B A    (E# D E# B)
G|---------------------------------------------------------------------------|
D|---------------------------------------------------------------------------|
A|-------------2-0--(45454)--------------------2-0---(4542)------------------|
E|---0-0-0-0-------------------0-0-0-0---------------------------------------|
 Verse 2 times
   E E E E E E E E E A A A A A A A A B B B B B B B B C# C# C# C# C# C# C# C#
G|---------------------------------------------------------------------------|
D|---------------------------------------------------------------------------|
A|--------------------0-0-0-0-0-0-0-0-2-2-2-2-2-2-2-2-4-4-4-4-4-4-4-4-4------|
E|--0-0-0-0-0-0-0-0----------------------------------------------------------|   
(i'm not sure how many times to play 2 befor slide til 9)
   E E E E E E E E A A A A A A A A  B B B B B B B B / C#
G|---------------------------------------------------------------------------|
D|---------------------------------------------------------------------------|
A|------------------0-0-0-0-0-0-0-0-2-2-2-2-2-2-2-2-/-9----------------------|
E|--0-0-0-0-0-0-0-0----------------------------------------------------------|
PRE-CHORUS 2 times      
    A A A A A A A A C#C#C#C#C#C#C#C# B B B B B B B B B B B B B B B B
G|---------------------------------------------------------------------------|
D|---------------------------------------------------------------------------|
A|--0-0-0-0-0-0-0-0-4-4-4-4-4-4-4-4-2-2-2-2-2-2-2-2-2-2-2-2-2-2-2-2----------|
E|---------------------------------------------------------------------------|
CHORUS 2 Times 
   E E E E E E E E A A A A A A A A C#C#C#C#C#C#C#C# B B B B B B B B
G|---------------------------------------------------------------------------|
D|---------------------------------------------------------------------------|
A|------------------0-0-0-0-0-0-0-0-4-4-4-4-4-4-4-4-2-2-2-2-2-2-2-2----------|
E|-0-0-0-0-0-0-0-0-----------------------------------------------------------|
Then
  D D D D D D D D D D D D D D D D A A A A A A A A B
G|---------------------------------------------------------------------------|
D|---------------------------------------------------------------------------|
A|-5-5-5-5-5-5-5-5-5-5-5-5-5-5-5-5-0-0-0-0-0-0-0-0-2-------------------------|
E|---------------------------------------------------------------------------|
   Intro (1 time) 
    E E E E    B A(C# D C# D C#)E E E E B A    (E# D E# B)
G|---------------------------------------------------------------------------|
D|---------------------------------------------------------------------------|
A|-------------2-0--(45454)-------------2-0----------(4542)------------------|
E|---0-0-0-0-------------------0-0-0-0---------------------------------------|
  Verse
 E E E E E E E E E A A A A A A A A B B B B B B B B C# C# C# C# C# C# C# C#
G|---------------------------------------------------------------------------|
D|---------------------------------------------------------------------------|
A|--------------------0-0-0-0-0-0-0-0-2-2-2-2-2-2-2-2-4-4-4-4-4-4-4-4-4------|
E|--0-0-0-0-0-0-0-0----------------------------------------------------------|
   (i'm not sure how many times to play 2 befor slide til 9)
   E E E E E E E E A A A A A A A A  B B B B B B B B / C#
G|---------------------------------------------------------------------------|
D|---------------------------------------------------------------------------|
A|------------------0-0-0-0-0-0-0-0-2-2-2-2-2-2-2-2-/-9----------------------|
E|--0-0-0-0-0-0-0-0----------------------------------------------------------|
PRE-CHORUS
  A A A A A A A A C#C#C#C#C#C#C#C# B B B B B B B B B B B B B B B B
G|---------------------------------------------------------------------------|
D|---------------------------------------------------------------------------|
A|--0-0-0-0-0-0-0-0-4-4-4-4-4-4-4-4-2-2-2-2-2-2-2-2-2-2-2-2-2-2-2-2----------|
E|---------------------------------------------------------------------------|
CHORUS 2 Times 
   E E E E E E E E A A A A A A A A C#C#C#C#C#C#C#C# B B B B B B B B
G|---------------------------------------------------------------------------|
D|---------------------------------------------------------------------------|
A|------------------0-0-0-0-0-0-0-0-4-4-4-4-4-4-4-4-2-2-2-2-2-2-2-2----------|
E|-0-0-0-0-0-0-0-0-----------------------------------------------------------|
Then
   D D D D D D D D D D D D D D D D A A A A A A A A B B  B B
G|---------------------------------------------------------------------------|
D|---------------------------------------------------------------------------|
A|-5-5-5-5-5-5-5-5-5-5-5-5-5-5-5-5-0-0-0-0-0-0-0-0-2-2--2-2------------------|
E|---------------------------------------------------------------------------|
INTERLUDE(i think this is wrong)
    F#(8x)  G#(4X)  A(4X)  B(8X)  (B C B)
G|--------------------------------------------
D|--44444444-6666-7777-99999999--(9b10r9)-----
A|--------------------------------------------
E|--------------------------------------------
Quiet CHORUS 2 Times 
   E                A                 C#             B
G|---------------------------------------------------------------------------|
D|---------------------------------------------------------------------------|
A|------------------0---------------4---------------2------------------------|
E|-0-------------------------------------------------------------------------|
CHORUS
2 Times
   E E E E E E E E A A A A A A A A C#C#C#C#C#C#C#C# B B B B B B B B
G|---------------------------------------------------------------------------|
D|---------------------------------------------------------------------------|
A|------------------0-0-0-0-0-0-0-0-4-4-4-4-4-4-4-4-2-2-2-2-2-2-2-2----------|
E|-0-0-0-0-0-0-0-0-----------------------------------------------------------|
Then
  D D D D D D D D D D D D D D D D A A A A A A A A B B B B B B B B
G|---------------------------------------------------------------------------|
D|---------------------------------------------------------------------------|
A|-5-5-5-5-5-5-5-5-5-5-5-5-5-5-5-5-0-0-0-0-0-0-0-0-2-2-2-2-2-2-2-2-----------|
E|---------------------------------------------------------------------------|
   D D D D D D D D D D D D D D D D A A A A A A A A B B  B B
G|---------------------------------------------------------------------------|
D|---------------------------------------------------------------------------|
A|-5-5-5-5-5-5-5-5-5-5-5-5-5-5-5-5-0-0-0-0-0-0-0-0-2-2--2-2------------------|
E|---------------------------------------------------------------------------|
  E E E E    B A(C# D C# D C#)E E E E        B A    (E# D E# B)
G|---------------------------------------------------------------------------|
D|---------------------------------------------------------------------------|
A|-------------2-0--(45454)--------------------2-0---(4542)------------------|
E|---0-0-0-0-------------------0-0-0-0---------------------------------------|
| /  slide up
| \  slide down
| h  hammer-on
| p  pull-off
| ~  vibrato
| +  harmonic
| x  Mute note
===============================================================================

            
            
Suggest correction
Creating personal tab
Creating personal tab
You can edit any tab online and save it as your Personal.

You can edit, replace or remove any tab part or add personal notes – all changes will be seen only by you.

Personal tabs can be accessed anytime from any device, even offline.
Learn more »
Give kudos to tab author, rate the tab!
1 2 3 4 5
comments
print report bad tab
guest
You may want to rate the tab now too:
select rating
Wanna post a correction for this tab? Suggest correction