Oops, an error
Loading. Please wait.

One And The Same Tab

6,793 views 1 this week
no commentswrite comment
1 2 3 4 5
please rate
add to favorites
launch autoscroll
font size
0
reset
how to read this tab
guitar tuner
Autoscroll
slow
fast
+/-
esc
set tempo
stop
Help us to improve Ultimate-Guitar.com Take our survey!
×
Contributor
Difficulty
slash0r 682
novice
Demi Lovato & Selena Gomez - One and the Same
---------------------------------------------

Tuning: EADGBe



### INTRO ### 00:00 ###
e|-----------------------------------------------------------|
B|-----------------------------------------------------------|
G|-----------4-2------------------------4-2------------------| 2x
D|--2-2-2-2--4-2---------------2-2-2-2--4-2------------------|
A|--2-2-2-2--2-0----4-5-4-5-4--2-2-2-2--2-0-----4-5-4-2------|
E|--0-0-0-0--------------------0-0-0-0-----------------------|


### VERSE ### 00:12 ###
e|------------------------------------|------------------------------------|
B|------------------------------------|------------------------------------|
G|----------2-------4-------------66--|----------2-------4---------44--44--| 2x
D|--2-------2-(8x)--4-(8x)--66666666--|--2-------2-(8x)--4-(8x)--44444444--|
A|--2-(8x)--0-------2-------44444444--|--2-(8x)--0-------2-------22222222--| 1st: palm muted
E|--0---------------------------------|--0---------------------------------| 2nd: accented


### PRE-CHORUS ### 00:37 ###
e|---------------------------|
B|---------------------------|
G|---------------------------| 2x
D|---------------------------|
A|--0-(8x)--4-(8x)--2-(16x)--| wah-wah
E|---------------------------|


### CHORUS ### 00:49 ###
e|----------------------------------|    |----------------------|
B|----------------------------------|    |----------------------|
G|----------2-------6-------4-------| 2x |--7--------2-------4--|
D|--2-------2-(8x)--6-(8x)--4-(8x)--|    |--7-(16x)--2-(8x)--4--|
A|--2-(8x)--0-------4-------2-------|    |--5--------0-------2--|
E|--0-------------------------------|    |----------------------|



### INTRO ### 01:07 ### (1x)

### VERSE ### 01:13 ### (1x, accented)

### PRE-CHORUS ### 01:26 ### (palm muted x24xxx chord for last note)

### CHORUS ### 01:38 ### (variation on last chord: --22--22--)



### INTERLUDE ### 01:56 ###
e|--------------------------------------------|
B|--------------------------------------------|
G|--------------------------------------------|
D|--44444444-6666-7777-99999999--9b10r9-(4x)--|
A|--------------------------------------------| wah-wah
E|--------------------------------------------|


### QUIET CHORUS ### 02:02 ###
e|------------------|----------------------------------|
B|------------------|----------------------------------|
G|------2---6---4---|------2---6---4-------------------|
D|--2---2---6---4---|--2---2---6---4-44444444444444----|
A|--2---0---4---2---|--2---0---4---2-22222222222222----|
E|--0---------------|--0-------------------------------|



### CHORUS ### 02:16 ### (last note 8x, then repeat 2nd part, variation on last chord: --2-2\--)

### INTRO ### 02:40 ### (without last transition)
Suggest correction new What's this?
You can suggest a correction to this tab. Community and Mods will review your correction and vote to approve or reject it.
comments
We did not receive enough feedback on this tab! Please rate:
print report bad tab
1 2 3 4 5
guest
You may want to rate the tab now too:
select rating
Please do not post tabs as comments. Select "correction" instead!