Oops, an error
Loading. Please wait.

Quiet Tab

version 1
version 1

Whole song

Interactive

8,465 views 1 this week
2 commentsread comments
1 2 3 4 5
x 7
add to favorites
launch autoscroll
font size
0
reset
how to read this tab
guitar tuner
Autoscroll
slow
fast
+/-
esc
set tempo
stop
Help us to improve Ultimate-Guitar.com Take our survey!
×
Author
Difficulty
intermediate
standard tuning
listen for strumming pattern

Verse: *do it 2x* "I here what your not saying....

e|---------------------------------------------------------------------------|
B|---------------------------------------------------------------------------|
G|-----5---5---5---5---5---5---5---5-----5---5---5---5---5---5---5---5-------|
D|-------------------------------------4---4---4---4---4---4---4---4---------| 
A|---3---3---3---3---3---3---3---3-------------------------------------------|   
E|---------------------------------------------------------------------------|   
                                                                           
e|---------------------------------------------------------------------------|
B|---------------------------------------------------------------------------|
G|-----5---5---5---5---5---5---5---5----5---5---5---5---5---5---5---5--------|
D|---5---5---5---5---5---5---5---5----3---3---3---3---3---3---3---3----------|                   
A|---------------------------------------------------------------------------|
E|---------------------------------------------------------------------------|


Chorus:"It's much too quiet in here..."                               

e|---------------------------------------------------------------------------|
B|---------------------------------------------------------------------------|
G|-----5---5---5---5---5---5---5---5-----------------------------------------|
D|--------------------------------------6--------7--------3------------------|
A|---3---3---3---3---3---3---3---3------6--x16---7--x16---3--x16-------------|
E|--------------------------------------4--------5--------1------------------|

"It's too quiet in here..."

e|---------------------------------------------------------------------------|
B|---------------------------------------------------------------------------|
G|-----5---5---5---5---5---5---5---5-----------------------------------------|
D|--------------------------------------6--------7--------3------------------|
A|---3---3---3---3---3---3---3---3------6--x16---7--x16---3--x16-------------|
E|--------------------------------------4--------5--------1------------------|


Verse:"It's like you know where I'm going..."

e|---------------------------------------------------------------------------|
B|---------------------------------------------------------------------------|
G|-----5---5---5---5---5---5---5---5---5--------5----------------------------|
D|-------------------------------------4--x16---5--x16---3-------------------|
A|---3---3---3---3---3---3---3---3-----3--------3--------3--x16--------------|
E|-------------------------------------------------------1-------------------|

"I see what you're not showing..."

e|---------------------------------------------------------------|
B|---------------------------------------------------------------|
G|-------------------------5--------5----------------------------|
D|-------------------------4--x16---5--x16---3-------------------|
A|-------------------------3--------3--------3--x16--------------|
E|-------------------------------------------1-------------------|


Chorus:"It's much too quiet in here..."

e|---------------------------------------------------------------------------|
B|---------------------------------------------------------------------------|
G|-----5---5---5---5---5---5---5---5-----------------------------------------|
D|--------------------------------------6--------7--------3------------------|
A|---3---3---3---3---3---3---3---3------6--x16---7--x16---3--x16-------------|
E|--------------------------------------4--------5--------1------------------|

"It's too quiet in here..."

e|---------------------------------------------------------------------------|
B|---------------------------------------------------------------------------|
G|---5~~--7~~--9~~--12~~-----------------------------------------------------|
D|---------------------------6--------7--------3-----------------------------|
A|---------------------------6--x16---7--x16---3--x16------------------------|
E|---------------------------4--------5--------1-----------------------------|


Bridge:"Don't stop, don't stop, telling me goodnight..."

e|---------------------------------------------------------------------------|
B|---------------------------------------------------------------------------|
G|---------------5----------------5--------7---5-----------------------------|
D|---3-----5-----5-----3-----5----5--------7---5---5----3---2----------------|
A|---3-----5-----3-----3-----5----3--------5---3---5----3---2----------------|
E|---1-----3-----------1-----3---------------------3----1---0----------------|

                                      or

e|---------------------------------------------------------------------------|
B|---------------------------------------------------------------------------|
G|---8---12----13---8-----12---------------13---15--13---8---6---5-----------|
D|---------------------------------------------------------------------------|
A|---------------------------------------------------------------------------|
E|---------------------------------------------------------------------------|


Chorus:"It's much too quiet in here..." *with acoustic*

e|---------------------------------------------------------------------------|
B|---------------------------------------------------------------------------|
G|---------------------------------------------------------------------------|
D|---------------------------------6--------7--------3-----------------------|
A|---------------------------------6--x10---7--x10---3--x10------------------|
E|---------------------------------4--------5--------1-----------------------|

"It's too quiet in here..."

e|----------------------------------------------------------------------------------|
B|----------------------------------------------------------------------------------|
G|----5~~--7~~--9~~--12~~---------------------------5-------------------------------|
D|--------------------------6-------7-------3-------5--x16--6-------7-------3-------|
A|--------------------------6--x16--7--x16--3--x16--3-------6--x16--7--x16--3--x16--|
E|--------------------------4-------5-------1---------------4-------5-------1-------|
Suggest correction
comments
print report bad tab
2 comments total.
0 reply
gontzhua 162 Dec 01, 2009 02:11 AM

wich tuning is used?

0 reply
gontzhua 162 Dec 14, 2009 04:56 AM

hehe!! sorry .... i Didn't red .... sorry

guest
You may want to rate the tab now too:
select rating
Wanna post a correction for this tab? Suggest correction