Oops, an error
Loading. Please wait.

Remember December Tab

version 1
version 1

Solo

Whole song

Interactive

21,097 views 18 this week
1 commentread comment
1 2 3 4 5
excellent!
x 10
add to favorites
launch autoscroll
font size
0
reset
how to read this tab
guitar tuner
Tab Pro tools
  • play this tab
  • loop segment
  • change instrument
  • show fretboard
  • metronome
Autoscroll
slow
fast
+/-
esc
set tempo
stop
Contributor
-------------------------------------------------------------------------------
			     Remember December - Demi Lovato
-------------------------------------------------------------------------------

Tabbed by: xStrawberryKissx
Email: xstrawberrykissx@live.co.uk

Tuning: Standard


	INTRO

e|---------------------------------------------------------------------------|
B|---------------------------------------------------------------------------|
G|---------------------------------------------------------------------------|
D|------3----5----6----------------3----5----6-------------------------------|
A|---------------------4--------------------------4--------------------------|
E|---------------------------------------------------------------------------|


	VERSE

e|---------------------------------------------------------------------------|
B|---------------------------------------------------------------------------|
G|---------------------------------------x-x-6---x-x-6---x-x-6---x-x-6-------|
D|---x-x-3----x-x-3----x-x-6----x-x-6----x-x-6---x-x-6---x-x-6---x-x-6-------|
A|---x-x-3----x-x-3----x-x-6----x-x-6----x-x-4---x-x-4---x-x-4---x-x-4-------|
E|---x-x-1----x-x-1----x-x-4----x-x-4----------------------------------------|

e|---------------------------------------------------------------------------|
B|---------------------------------------------------------------------------|
G|---------------------------------------x-x-6---x-x-6---x-x-6---x-x-6-------|
D|---x-x-3----x-x-3----x-x-6----x-x-6----x-x-6---x-x-6---x-x-6---x-x-6-------|
A|---x-x-3----x-x-3----x-x-6----x-x-6----x-x-4---x-x-4---x-x-4---x-x-4-------|
E|---x-x-1----x-x-1----x-x-4----x-x-4----------------------------------------|

e|---------------------------------------------------------------------------|
B|---------------------------------------------------------------------------|
G|---------------------------------------x-x-6---x-x-6---x-x-6---x-x-6-------|
D|---x-x-3----x-x-3----x-x-6----x-x-6----x-x-6---x-x-6---x-x-6---x-x-6-------|
A|---x-x-3----x-x-3----x-x-6----x-x-6----x-x-4---x-x-4---x-x-4---x-x-4-------|
E|---x-x-1----x-x-1----x-x-4----x-x-4----------------------------------------|

e|---------------------------------------------------------------------------|
B|---------------------------------------------------------------------------|
G|---------------------------------------x-x-6---x-x-6-------6-6----6---6----|
D|---x-x-3----x-x-3----x-x-6----x-x-6----x-x-6---x-x-6-------6-6----6---6----|
A|---x-x-3----x-x-3----x-x-6----x-x-6----x-x-4---x-x-4-------4-4----4---4----|
E|---x-x-1----x-x-1----x-x-4----x-x-4----------------------------------------|

e|---------------------------------------------------------------------------|
B|---------------------------------------------------------------------------|
G|---------------------------------------x-x-6---x-x-6---x-x-6---x-x-6-------|
D|---x-x-3----x-x-3----x-x-6----x-x-6----x-x-6---x-x-6---x-x-6---x-x-6-------|
A|---x-x-3----x-x-3----x-x-6----x-x-6----x-x-4---x-x-4---x-x-4---x-x-4-------|
E|---x-x-1----x-x-1----x-x-4----x-x-4----------------------------------------|

e|---------------------------------------------------------------------------|
B|---------------------------------------------------------------------------|
G|---------------------------------------x-x-6---x-x-6---x-x-6---x-x-6-------|
D|---x-x-3----x-x-3----x-x-6----x-x-6----x-x-6---x-x-6---x-x-6---x-x-6-------|
A|---x-x-3----x-x-3----x-x-6----x-x-6----x-x-4---x-x-4---x-x-4---x-x-4-------|
E|---x-x-1----x-x-1----x-x-4----x-x-4----------------------------------------|

e|---------------------------------------------------------------------------|
B|---------------------------------------------------------------------------|
G|---------------------------------------x-x-6---x-x-6---x-x-6---x-x-6-------|
D|---x-x-3----x-x-3----x-x-6----x-x-6----x-x-6---x-x-6---x-x-6---x-x-6-------|
A|---x-x-3----x-x-3----x-x-6----x-x-6----x-x-4---x-x-4---x-x-4---x-x-4-------|
E|---x-x-1----x-x-1----x-x-4----x-x-4----------------------------------------|

e|---------------------------------------------------------------------------|
B|---------------------------------------------------------------------------|
G|---------------------------------------x-x-6---x-x-6-6------------X-X-X-X--|
D|---x-x-3----x-x-3----x-x-6----x-x-6----x-x-6---x-x-6-6------------X-X-X-X--|
A|---x-x-3----x-x-3----x-x-6----x-x-6----x-x-4---x-x-4-4------------X-X-X-X--|
E|---x-x-1----x-x-1----x-x-4----x-x-4----------------------------------------|


	CHORUS

e|---------------------------------------------------------------------------|
B|---------------------------------------------------------------------------|
G|-----8----8--------10----10----------6----6--------------------------------|
D|-----8----8-x6-----10----10-x6-------6----6--x16---------------------------|
A|-----6----6---------8-----8----------4----4--------------------------------|
E|---------------------------------------------------------------------------|

e|---------------------------------------------------------------------------|
B|---------------------------------------------------------------------------|
G|-----8----8--------10----10----------6----6--------------------------------|
D|-----8----8-x6-----10----10-x6-------6----6--x16---------------------------|
A|-----6----6---------8-----8----------4----4--------------------------------|
E|---------------------------------------------------------------------------|

e|---------------------------------------------------------------------------|
B|---------------------------------------------------------------------------|
G|-----5-------6-------3-----------------------------------------------------|
D|-----5-x8----6-x8----3-x8----3---------------------------------------------|
A|-----3-------4-------1-------3-x8------------------------------------------|
E|-----------------------------1---------------------------------------------|

e|---------------------------------------------------------------------------|
B|---------------------------------------------------------------------------|
G|-----8----8--------10----10----------6---6--------5--5---------------------|
D|-----8----8-x6-----10----10-x6-------6---6--x16---5--5---------------------|
A|-----6----6---------8-----8----------4---4--------3--3---------------------|
E|---------------------------------------------------------------------------|


e|---------------------------------------------------------------------------|
B|---------------------------------------------------------------------------|
G|---------------------------------------------------------------------------|
D|------3----5----6----------------3----5----6-------------------------------|
A|---------------------4--------------------------4--------------------------|
E|---------------------------------------------------------------------------|

e|---------------------------------------------------------------------------|
B|---------------------------------------------------------------------------|
G|---------------------------------------------------------------------------|
D|------3----5----6----------------3----5----6-------------------------------|
A|---------------------4--------------------------4--------------------------|
E|---------------------------------------------------------------------------|


VERSE 2


e|---------------------------------------------------------------------------|
B|---------------------------------------------------------------------------|
G|---------------------------------------x-x-6---x-x-6---x-x-6---x-x-6-------|
D|---x-x-3----x-x-3----x-x-6----x-x-6----x-x-6---x-x-6---x-x-6---x-x-6-------|
A|---x-x-3----x-x-3----x-x-6----x-x-6----x-x-4---x-x-4---x-x-4---x-x-4-------|
E|---x-x-1----x-x-1----x-x-4----x-x-4----------------------------------------|

e|---------------------------------------------------------------------------|
B|---------------------------------------------------------------------------|
G|---------------------------------------x-x-6---x-x-6---x-x-6---x-x-6-------|
D|---x-x-3----x-x-3----x-x-6----x-x-6----x-x-6---x-x-6---x-x-6---x-x-6-------|
A|---x-x-3----x-x-3----x-x-6----x-x-6----x-x-4---x-x-4---x-x-4---x-x-4-------|
E|---x-x-1----x-x-1----x-x-4----x-x-4----------------------------------------|

e|---------------------------------------------------------------------------|
B|---------------------------------------------------------------------------|
G|---------------------------------------x-x-6---x-x-6---x-x-6---x-x-6-------|
D|---x-x-3----x-x-3----x-x-6----x-x-6----x-x-6---x-x-6---x-x-6---x-x-6-------|
A|---x-x-3----x-x-3----x-x-6----x-x-6----x-x-4---x-x-4---x-x-4---x-x-4-------|
E|---x-x-1----x-x-1----x-x-4----x-x-4----------------------------------------|

e|---------------------------------------------------------------------------|
B|---------------------------------------------------------------------------|
G|---------------------------------------x-x-6---x-x-6-6---------------------|
D|---x-x-3----x-x-3----x-x-6----x-x-6----x-x-6---x-x-6-6---------------------|
A|---x-x-3----x-x-3----x-x-6----x-x-6----x-x-4---x-x-4-4---------------------|
E|---x-x-1----x-x-1----x-x-4----x-x-4----------------------------------------|

	CHORUS

e|---------------------------------------------------------------------------|
B|---------------------------------------------------------------------------|
G|-----8----8--------10----10----------6----6--------------------------------|
D|-----8----8-x6-----10----10-x6-------6----6--x16---------------------------|
A|-----6----6---------8-----8----------4----4--------------------------------|
E|---------------------------------------------------------------------------|

e|---------------------------------------------------------------------------|
B|---------------------------------------------------------------------------|
G|-----8----8--------10----10----------6----6--------------------------------|
D|-----8----8-x6-----10----10-x6-------6----6--x16---------------------------|
A|-----6----6---------8-----8----------4----4--------------------------------|
E|---------------------------------------------------------------------------|

e|---------------------------------------------------------------------------|
B|---------------------------------------------------------------------------|
G|-----5-------6-------3-----------------------------------------------------|
D|-----5-x8----6-x8----3-x8----3---------------------------------------------|
A|-----3-------4-------1-------3-x8------------------------------------------|
E|-----------------------------1---------------------------------------------|

e|---------------------------------------------------------------------------|
B|---------------------------------------------------------------------------|
G|-----8----8--------10----10----------6----6---------5--5-------------------|
D|-----8----8-x6-----10----10-x6-------6----6--x16----5--5-------------------|
A|-----6----6---------8-----8----------4----4---------3--3-------------------|
E|---------------------------------------------------------------------------|


	SOLO

e|---------------------------------------------------------------------------|
B|---------------------------------------------------------------------------|
G|------------------------------------------------------------8--------------|
D|------------------------------------------------------------8--------------|
A|------------------------4--3--------------------------------6--------------|
E|-1--1-4-1-4-3-1-1-4-1-1-----------1--1-4-1-4-3-1-1-4-1-1-------------------|


e|---------------------------------------------------------------------------|
B|---------------------------------------------------------------------------|
G|------------------------------------------------------------8--------------|
D|------------------------------------------------------------8--------------|
A|------------------------4--3--------------------------------6--------------|
E|-1--1-4-1-4-3-1-1-4-1-1-----------1--1-4-1-4-3-1-1-4-1-1-------------------|

e|---------------------------------------------------------------------------|
B|---------------------------------------------------------------------------|
G|------------------------------------------------------------8--------------|
D|------------------------------------------------------------8--------------|
A|------------------------4--3--------------------------------6--------------|
E|-1--1-4-1-4-3-1-1-4-1-1-----------1--1-4-1-4-3-1-1-4-1-1-------------------|


e|--1--3-4----1--3-4-6b--|          e|---------------------------------------|
B|---------2-------------|          B|---------------------------------------|
G|-----------------------|   OR     G|--10--12--13---------10--12--13---15b--|
D|-----------------------|          D|--------------11-----------------------|
A|-----------------------|          A|---------------------------------------|
E|-----------------------|          E|---------------------------------------|


	CHORUS

e|---------------------------------------------------------------------------|
B|---------------------------------------------------------------------------|
G|---------------------------------------------------3--3--------6--6--------|
D|---------------------------------------------------3--3-x8-----6--6-x8-----|
A|---------------------------------------------------1--1--------4--4--------|
E|---------------------------------------------------------------------------|

e|---------------------------------------------------------------------------|
B|---------------------------------------------------------------------------|
G|-----8----8--------10----10----------6----6--------------------------------|
D|-----8----8-x6-----10----10-x6-------6----6--x16---------------------------|
A|-----6----6---------8-----8----------4----4--------------------------------|
E|---------------------------------------------------------------------------|

e|---------------------------------------------------------------------------|
B|---------------------------------------------------------------------------|
G|-----5-------6-------3-----------------------------------------------------|
D|-----5-x8----6-x8----3-x8----3---------------------------------------------|
A|-----3-------4-------1-------3-x8------------------------------------------|
E|-----------------------------1---------------------------------------------|

e|---------------------------------------------------------------------------|
B|---------------------------------------------------------------------------|
G|-----8----8--------10----10----------6----6---------5--5-------------------|
D|-----8----8-x6-----10----10-x6-------6----6--x16----5--5-------------------|
A|-----6----6---------8-----8----------4----4---------3--3-------------------|
E|---------------------------------------------------------------------------|

	OUTRO

e|---------------------------------------------------------------------------|
B|---------------------------------------------------------------------------|
G|------------------------------------------------------------8--------------|
D|------------------------------------------------------------8--------------|
A|------------------------4--3--------------------------------6--------------|
E|-1--1-4-1-4-3-1-1-4-1-1-----------1--1-4-1-4-3-1-1-4-1-1-------------------|

e|---------------------------------------------------------------------------|
B|---------------------------------------------------------------------------|
G|------------------------------------------------------------8--------------|
D|------------------------------------------------------------8----3---------|
A|------------------------4--3--------------------------------6----3---------|
E|-1--1-4-1-4-3-1-1-4-1-1-----------1--1-4-1-4-3-1-1-4-1-1---------1---------|

Check out the guitar cover to learn how to play ‘Remember December’ here:
http://www.youtube.com/user/xStrawberrykissx


| /  slide up
| \  slide down
| h  hammer-on
| p  pull-off
| ~  vibrato
| +  harmonic
| x  Mute note
| b  Bend note
===============================================================================
comments
print report bad tab
1 comment total.
0 reply
mickster1000 wrote on September 16 2009, 07:06 am

awesome tab! :)

I want to post or [tab]
guest
You may want to rate the tab now too:
select rating
Please do not post tabs as comments. Select "correction" instead!