Oops, an error
Loading. Please wait.

Remember December chords

version 4
version 4

Whole song

Interactive

9,453 views 3 this week
no commentswrite comment
1 2 3 4 5
x 3
add to favorites
×
Save as Personal and add changes to this tab that will be seen only by you. Learn more ›
×
You can save this tab as Personal to edit and correct it or add notes. All changes will be seen only by you. Learn more »
launch autoscroll
font size
0
reset
transpose
0
reset
simplify chords
display chords
guitar tuner
edit
Autoscroll
slow
fast
+/-
esc
set tempo
stop
Strumming
There is no strumming pattern for this song yet. and get +5 IQ
Demi Lovato
Remember December
Here We Go Again
2009 Hollywood Records
Submitted by: paramore_fans@yahoo.com

Key: G#

Tuning: Standard EADGBe

Chords used:
Fm -   133111
C# -   x46664
G# -   466544
Eb -   x68886
Bbm -  x13321
G#/C - x365xx
C/E -  032xxx


Intro: Fm--G#--C#- x2

Guitar 2:
   Fm       G#    C#
e|-----|---------|--|
B|-----|---------|--|
G|-----|---------|--|
D|-3---|-5--6----|--| x2
A|-----|-------4-|--|
E|-----|---------|--|

Guitar 3: Tremolo Effects Pedal
e|-------------------|
B|-------------------|
G|-10-10-10-10-10-10-|
D|-------------------|
A|-------------------|
E|-------------------|

Piano:
   Fm       G#        C#
e|-----|---------|-4--3----|
B|-----|---------|-------2-|
G|-----|---------|---------|
D|-----|---------|---------|
A|-----|---------|---------|
E|-----|---------|---------|

   Fm       G#    C#
e|-1---|-3--4----|--|
B|-----|-------2-|--|
G|-----|---------|--|
D|-3---|---------|--|
A|-----|---------|--|
E|-----|---------|--|


Verse 1:
  Fm     G#
I feel a separation
C#
coming on
        Fm        G#
cause i know that you
             C#
once told me moving on
Fm
i wish it would
 G#
snow tonight
C#
pull me in and
avoid a fight
        Fm
Cause i feel
  G#         C#
A separation coming on


Guitar 2: "i wish it would snow tonight tonight"
e|------------------------------|
B|------------------------------|
G|------------------------------|
D|-3--3-3-3--3--3-3-3--3--3-3-3-|
A|------------------------------|
E|------------------------------|


Verse 2:
     Fm         G#
Just prove that there
           C#
is nothing left to try
          Fm
it is the truth
  G#
i rather wish it'd
C#
move tonight?
    Fm
you kiss me with
      G#
those open eyes
   C#
It says so much
                    Fm
it's no surprise to you
    G#
but I've got something
C#         (hold)
left to say


Chorus:
         Eb
Don't surrender
   Fm        C#
surrender surrender
         Eb
please remember
  Fm       C#
remember December
we where so in
G#/C
love back then
        C#
how you please tonight
   Bbm
do what they say
      Fm
don't go that way
  Eb
Remember
  Fm       C#
remember December


Guitar 2: Chorus, fast sweeping!!!
         Eb                  Fm
E|-----------------|----------------------|
B|---------8-----9-|------------8-------9-|
G|-----8-----8-----|------10------10------|
D|---8---8-----8---|---10----10------10---|
A|-6---------------|-8--------------------|
E|-----------------|----------------------|

                      C#
e|------------------------------------9-11---|
B|----------------------------------8------9-|
G|------------------8------------10----------|
D|------10-11-10--------------10-------------|
A|---11----------11---11---11----------------|
E|-9---------------------9-------------------|


Post Chorus 1:
C/E      Fm    G# C#
Please remember
         Fm    G# C#
Don't surrender


Verse 3:
    Fm       G#
you said you wouldn't
         C#
let them change your mind
           Fm
cause when here
  G#             C#
together by your melts the ice
    Fm                 G#
our hearts are both on overdrive
C#
come with me let's
                  Fm
run tonight don't let
      G#           C#         (hold)
these memories you left behind


(Repeat Chorus)


Post chorus 2: Semi Solo
C#/E     Fm
Please remember


Guitar 2:
e|-----------------------------|
B|-----------------------------|
G|-----------------------------|
D|-----------------------------|
A|------------------------4--3-|
E|-1--1-4-1-4-3-1-1-4-1-1------|

e|--------------------------|
B|--------------------------|
G|------------------------8-|
D|------------------------8-|
A|------------------------6-|
E|-1--1-4-1-4-3-1-1-4-1-1---|


Bridge:
Eb  Fm
I remember
that together
We both promised
that forever
Eb         Fm
  We could do this
fight the pressure
please remember
December Don't surrender


Guitar solo: Fm--G#--C#- x2

Guitar 2: b means bend
e|-1--3-4----1--3-4-6b-|
B|--------2------------|
G|---------------------|
D|---------------------|
A|---------------------|
E|---------------------|


(Repeat Chorus)


Outro:
C/E      Fm
Please remember
Eb       Fm   Eb Fm(hold)
Don't surrender

            
            
Suggest correction
Creating personal tab
Creating personal tab
You can edit any tab online and save it as your Personal.

You can edit, replace or remove any tab part or add personal notes – all changes will be seen only by you.

Personal tabs can be accessed anytime from any device, even offline.
Learn more »
Give kudos to tab author, rate the tab!
1 2 3 4 5
comments
print report bad tab
guest
You may want to rate the tab now too:
select rating
Wanna post a correction for this tab? Suggest correction