Oops, an error
Loading. Please wait.

Shadow Tab

version 1
version 1

Whole song

6,282 views 9 this week
1 commentread comment
1 2 3 4 5
worth learning
x 5
add to favorites
launch autoscroll
font size
0
reset
how to read this tab
guitar tuner
Tab Pro tools
  • play this tab
  • loop segment
  • change instrument
  • show fretboard
  • metronome
×
Best way to learn
"Shadow"
Autoscroll
slow
fast
+/-
esc
set tempo
stop
Contributor
Difficulty
novice
figure out the strumming yourself.
this is a really easy and cute song =]
i'm not sure if i tabbed this right
so if you have any problems
email: jaqixjoyride@aol.com
aim: jaqixjoyride@aol.com

intro
E|---9----5----4------|
A|---0----0----0------|
D|---9----5----4------|
G|---9----5----4------|
B|--------------------|
E|--------------------|

E|---9----5----4----2----|
A|---0----0----0----0----|
D|---9----5----4----2----|
G|---9----5----4----2----|
B|-----------------------|
E|-----------------------|

verse

E|---9----5----4----2----|
A|---0----0----0----0----|
D|---9----5----4----2----|
G|---9----5----4----2----|
B|-----------------------|
E|-----------------------|

E|---9----7----4----2----|
A|---0----0----0----0----|
D|---9----7----4----2----|
G|---9----7----4----2----|
B|-----------------------|
E|-----------------------|

pre-chorus

E|---4----2----4----2----4----2-----|
A|---0----0----0----0----0----0-----|
D|---4----2----4----2----4----2-----|
G|---4----2----4----2----4----2-----|
B|----------------------------------|
E|----------------------------------|


E|---5----2--------------|
A|---0----0--------------|
D|---5----2--------------|
G|---5----2--------------|
B|-----------------------|
E|-----------------------|

chorus
E|---0----0-----4---------|
A|---7----12----0---------|
D|---6----11----4---------|
G|---8----13----4---------|
B|------------------------|
E|------------------------|

E|---5----4----5----4----2----|
A|---0----0----0----0----0----|
D|---5----4----5----4----2----|
G|---5----4----5----4----2----|
B|----------------------------|
E|----------------------------|

E|---0----0-----4------|
A|---7----12----0------|
D|---6----11----4------|
G|---8----13----4------|
B|---------------------|
E|---------------------|

E|---5----4----5----4----2----4----5----7--|
A|---0----0----0----0----0----0----0----0--|
D|---5----4----5----4----2----4----5----7--|
G|---5----4----5----4----2----4----5----7--|
B|-----------------------------------------|
E|-----------------------------------------|

E|----2----4----5----7--------|
A|----0----0----0----0--------|
D|----2----4----5----7--------|
G|----2----4----5----7--------|
B|----------------------------|
E|----------------------------|

that's pretty much the same thing for the whole song.
sorry if i fudged it up.
i'm new to this tabbing thing XP

myspace.com/jaqixjoyride
comments
print report bad tab
1 comment total.
0 reply
rocky2476 wrote on August 24 2008, 05:53 pm

no lead

I want to post or [tab]
guest
You may want to rate the tab now too:
select rating
Please do not post tabs as comments. Select "correction" instead!