Oops, an error
Loading. Please wait.

Skyscraper solo ukulele

version 1
version 1

Solo

Whole song

Interactive

757 views 21 this week
no commentswrite comment
1 2 3 4 5
x 5
add to favorites
×
Save as Personal and add changes to this tab that will be seen only by you. Learn more ›
×
You can save this tab as Personal to edit and correct it or add notes. All changes will be seen only by you. Learn more »
launch autoscroll
font size
0
reset
transpose
0
reset
display chords
guitar tuner
edit
Autoscroll
slow
fast
+/-
esc
set tempo
stop
Author
Difficulty
Strumming
There is no strumming pattern for this song yet. and get +5 IQ
[Verse 1]
Skies are crying, I am watching,Catching teardrops in my hands.

---------------------------------------------------------------|
---------------------------------------------------------------|
---------------------------------------------------------------|
-0----2---5-4----0--2---5-4------0-2------5-4------2---0--2----|


Only silence, as it's ending, like we never had a chance.

---------------------------------------------------------|
---------------------------------------------------------|
---------------------------------------------------------|
-0-2--5-4-----0---2---5-4-------0---2--5-4---2--0----2---|

Do you have to make me feel like there's nothing left of me?

--------------------------------------------------0---------|
---------2--------------2-----0---------------------------0-|
2---2-------------------------------------------------------|
------------0---0---0---------------0------5-4--------0-----|

[Chorus]
You can take everything I have, You can break everything I am,

-----0-------------------------------0---------------------0-|
-------------------------------------------------------------|
-------------------------------------------------------------|
0--------0------5-4-2---0---0---0---------0-----5-4-2----0---|


Like I'm made of glass, like I'm made of paper. Go on and try to tear me down,


-0--------0--------------0---------0----------------0----------------------------|
---------------------------------------------------------------------------------|
---------------------------------------------------------------------------------|
------0-------0----4----------0-------4---5-4---0------0--5---4---2---0----2-----|


I will be rising from the ground, Like a skyscraper, like a skyscraper

---0--------------------------------0-----0-2-0--------0-----0-2-3-2----|
------------------------------------------------------------------------|
------------------------------------------------------------------------|
0-------0--5-4----2----0----2----------0--------0---------0-------------|

            
            
Suggest correction
Creating personal tab
Creating personal tab
You can edit any tab online and save it as your Personal.

You can edit, replace or remove any tab part or add personal notes – all changes will be seen only by you.

Personal tabs can be accessed anytime from any device, even offline.
Learn more »
comments
print report bad tab
guest
You may want to rate the tab now too:
select rating
Wanna post a correction for this tab? Suggest correction