Oops, an error
Loading. Please wait.

Two Worlds Collide tab

version 1
version 1

Whole song

Interactive

14,527 views 3 this week
2 commentsread comments
1 2 3 4 5
x 5
add to favorites
×
Save as Personal and add changes to this tab that will be seen only by you. Learn more ›
×
You can save this tab as Personal to edit and correct it or add notes. All changes will be seen only by you. Learn more »
launch autoscroll
font size
0
reset
how to read this tab
guitar tuner
edit
Autoscroll
slow
fast
+/-
esc
set tempo
stop
Difficulty
----------------------------------------------------------------------------
                             Two Worlds - Demi Lovato
----------------------------------------------------------------------------
Tabbed by:abby
Email:rocketchick022@aim.com

Tuning: Standard


this is the way demi herself plays it!! :)


    Intro

e|---------------------------------------------------------------------------|
B|---------------------------------------------------------------------------|
G|---9-----------------------------------------------------------------------|
D|---9----9----7-------------------------------------------------------------|
A|---7----9----7-----4x------------------------------------------------------|
E|---0----7----5-------------------------------------------------------------|


    verse

e|-------------------------------------------------------------------------|
B|-------------------------------------------------------------------------|
G|----------9---------------9--6--4--1--6--4--1----------------------------|
D|------9---9---9--------9--9--6--4--2--6--4--2----------------------------|
A|------9---7---9---2x---9--7--4--2--2--4--2--2----------------------------|
E|------7---0---7--------7--0--0--0--0--0--0--0----------------------------|

    Chorus

e|-------------------------------------------------------------------------|
B|-------------------------------------------------------------------------|
G|----9------------6--4--3-------------------------------------------------|
D|----9--9--7------6--4--4--7--9-------------------------------------------|
A|----7--9--7--2x--4--2--4--7--9-------------------------------------------|
E|----0--7--5------0--0--2--5--7-------------------------------------------|

    Bridge

e|-------------------------------------------------------------------------|
B|-------------------------------------------------------------------------|
G|----6-----4--6-----------------------------------------------------------|
D|----6--2--4--6--2--4--7--9-----------------------------------------------|
A|----4--2--2--4--2--4--7--9-----------------------------------------------|
E|----0--0--0--0--0--2--5--7-----------------------------------------------|

    Interlude

e|-------------------------------------------------------------------------|
B|-------------------------------------------------------------------------|
G|--------9----------------------------------------------------------------|
D|-----9--9--9-------------------------------------------------------------|
A|-----9--7--9-------------------------------------------------------------|
E|-----7--0--7-------------------------------------------------------------|


Song Order:
Intro
Verse
Chorus
Intro (only do the riff twice)
Verse
Chorus
Bridge
Interlude
Chorus

(i think the order is right, correct me if i'm wrong though)


| /  slide up
| \  slide down
| h  hammer-on
| p  pull-off
| ~  vibrato
| +  harmonic
| x  Mute note
===============================================================================
Suggest correction
Creating personal tab
Creating personal tab
You can edit any tab online and save it as your Personal.

You can edit, replace or remove any tab part or add personal notes – all changes will be seen only by you.

Personal tabs can be accessed anytime from any device, even offline.
Learn more »
comments
print report bad tab
2 comments total.
0 reply
ncroxalot4 215 Dec 01, 2008 05:43 AM

e|-------------------------------------------------|
B|-------------------------------------------------|
G|----------9----------------9--6--4--1--6--4--1---|
D|------7---9---9---------9--9--6--4--2--6--4--2---|
A|------7---7---9---2x----9--7--4--2--2--4--2--2---|
E|------5-------7---------7------------------------|

i think this is the verse

0 reply
Rebeccal9972 84 Jun 19, 2010 11:35 AM

i think this is the verse:

e|-------------------------------------------------------------------------|
B|-------------------------------------------------------------------------|
G|----------9---------------9--6--4--2--6--4--2----------------------------|
D|------9---9---9--------9--9--6--4--2--6--4--2----------------------------|
A|------9---7---9---2x---9--7--4--2--2--4--2--2----------------------------|
E|------7---0---7--------7--0--0--0--0--0--0--0----------------------------|

guest
Wanna post a correction for this tab? Suggest correction