Oops, an error
Loading. Please wait.

We Rock tab

version 2
version 2

Whole song

3,313 views 3 this week
2 commentsread comments
1 2 3 4 5
x 3
add to favorites
×
Save as Personal and add changes to this tab that will be seen only by you. Learn more ›
×
You can save this tab as Personal to edit and correct it or add notes. All changes will be seen only by you. Learn more »
launch autoscroll
font size
0
reset
how to read this tab
guitar tuner
edit
Autoscroll
slow
fast
+/-
esc
set tempo
stop
Difficulty
----------------------------------------------------------------------------
                             WE ROCK – Camp Rock Cast
-------------------------------------------------------------------------------
Tabbed by: Optimus Prime
Email:

Tuning: Standard

There are two other tabs for this song but neither one was perfect, and since I love 
song, I felt like  had to make one that was right.

The intro with the “we rock”s has no guitar part.

Verse
Come as you are, you’re a superstar, world in your pocket and you know it.  You can feel 
beat, running through your feet, heart’s racing faster, rock and rollin’.
e|---------------------------------------------------------------------------------------|
B|---------------------------------------------------------------------------------------|
G|----6---6------6---6------6------6---4------4------4-----------------------------------|
D|----6---6------6---6------6------6---4------4------4---4------4------4-4-4-4-----------|
A|----4---4------4---4------4------4---2------2------2---4------4------4-4-4-4-----------|
E|-------------------------------------------------------2------2------2-2-2-2-----------|

Do that twice, then the harmony part:

All that you need is the music, to take you to, some other place, where you know, you belong!
e|---------------------------------------------------------------------|
B|---------------------------------------------------------------------|
G|----6-6-6-6-6-6-6-6-4-4-4-4-4-4-4-4----------------------------------|
D|----6-6-6-6-6-6-6-6-4-4-4-4-4-4-4-4-4-4-4-4-4-4-4-4-7-7-7-7-7-7-7-7--|
A|----4-4-4-4-4-4-4-4-2-2-2-2-2-2-2-2-4-4-4-4-4-4-4-4-7-7-7-7-7-7-7-7--|
E|------------------------------------2-2-2-2-2-2-2-2-5-5-5-5-5-5-5-5--|

e|-----------------------------------------------------------------------------------------------|
B|-----------------------------------------------------------------------------------------------|
G|6-6-6-6-6-6-6-6-4-4-4-4-4-4-4-4-11-11-11-11-11-11-11-11-----------------13-13-13-13-13-13-13-13|
D|6-6-6-6-6-6-6-6-4-4-4-4-4-4-4-4-11-11-11-11-11-11-11-11-6-6-6-6-6-6-6-6-13-13-13-13-13-13-13-13|
A|4-4-4-4-4-4-4-4-2-2-2-2-2-2-2-2-9—-9--9--9---9--9--9--9-6-6-6-6-6-6-6-6-11-11-11-11-11-11-11-11|
E|--------------------------------------------------------4-4-4-4-4-4-4-4------------------------|

Now the Chorus:
Raise your hands up in the air and scream, we’re finding our voice, following our 
cuz’ we rock, we rock, we rock, come on!
Nobody in the world’s gonna’ bring us down, the louder we go, the better we sound cuz’ 
rock, we rock, we rock, come on!

For this, do 1 twice, then 2, then 1 two more times, then 3.
1.
e|-------------------------------------|
B|-------------------------------------|
G|----------11—-11-11-6--6-6-----------|
D|----8-8-8-11—-11-11-6--6-6-6—-6-6-6--|
A|----8-8-8-9---9--9--4--4-4-6—-6-6-6--|
E|----6-6-6------------------4—-4-4-4--|
2.
e|----------------------------------|
B|----------------------------------|
G|-----------------6—-6-6-----------|
D|----8-8-8-4--4-4-6—-6-6-6—-6-6-6--|
A|----8-8-8-4—-4-4-4—-4-4-6—-6-6-6--|
E|----6-6-6-2—-2-2--------4—-4-4-4--|
3.
e|---------------------------------------------|
B|---------------------------------------------|
G|----8-8-8-8-8-8-10-11--11-11-11-11-11-11-11--|
D|----8-8-8-8-8-8-10-11--11-11-11-11-11-11-11--|
A|----6-6-6-6-6-6-8—-9---9—-9---9--9--9--9--9--|
E|---------------------------------------------|

Once you’ve rocked that to its full potency, there’s a bridge which you can play like 
 Just repeat this as many times as necessary.
 We rock, we rock, we rock, on.  We rock, we rock, we rock, on.

e|---------------------|
B|---------------------|
G|----4-4-4-4-4-4-4-4--|
D|----4-4-4-4-4-4-4-4--|
A|----2-2-2-2-2-2-2-2--|
E|---------------------|
After that there’s another verse:
We’re finally letting go, losing all control, won’t stop ourselves, cuz’ we love it.
We’re not afraid to be, everything you see, no more hiding now, we’re gonna’ own it.

Then you do the harmony again, same as before.
After that there’s another chorus the same way as the first.
Following that is a part with Demi Lovato and Joe Jonas singing:
We’ve got the music in our souls, and it’s the thing we want the most, it picks us up 
we fall down, it turns our world around.

While everybody else sings a few Na Na’s and the bass does something like this.

e|-----------------------------------------------------------------------------|
B|-----------------------------------------------------------------------------|
G|-----------------------------------------------------------------------------|
D|-----------------------------------------------------------------------------|
A|-----------------------------------------------------------------------------|
E|----6------6/---15---4------4/---15---6------6/---15---4------4/---15--------|x2

e[------------------------------------------------|
B[------------------------------------------------|
G[------------------------------------------------|
D[---8-8-8-8-8-8-10-11--11-11-11-11-11-11-11------|
A[---8-8-8-8-8-8-10-11—-11-11-11-11-11-11-11------|
E[---6-6-6-6-6-6-8—-9---9—-9—-9—-9—-9—-9—-9-------|
Note: this part is the most likely to be incorrect in the entire tab.
Then there’s a part that sounds something like this:
Every day and every night, it’s all we are, and all we want.
With “we rock” in the background.  No guitar.

Once Demi Lovato has blown your mind with that piece of high-voltage singing, you do the 
twice with building intensity and end with the outro.
We rock, we rock, we rock, on.  We rock, we rock, Camp Rock!

| /  slide up
| x  Mute note
===============================================================================
Suggest correction
Creating personal tab
Creating personal tab
You can edit any tab online and save it as your Personal.

You can edit, replace or remove any tab part or add personal notes – all changes will be seen only by you.

Personal tabs can be accessed anytime from any device, even offline.
Learn more »
Give kudos to tab author, rate the tab!
1 2 3 4 5
comments
print report bad tab
2 comments total.
0 reply
80050 36 Aug 16, 2008 12:15 PM

A great tab, and you got the chorus right, unlike the other one.
The part at the end with the slides is probably wrong, though.

0 reply
Pyro Punk1 10 Aug 21, 2008 07:08 PM

Great tab! This is the correct version. The other tab sucks compared to this! =) *5 Stars*

guest
Wanna post a correction for this tab? Suggest correction