Oops, an error
Loading. Please wait.

Who Will I Be Tab

version 1
version 1

Whole song

11,571 views 1 this week
1 commentread comment
1 2 3 4 5
accurate
x 4
add to favorites
launch autoscroll
font size
0
reset
how to read this tab
guitar tuner
Tab Pro tools
  • play this tab
  • loop segment
  • change instrument
  • show fretboard
  • metronome
×
Best way to learn
"Who Will I Be"
Autoscroll
slow
fast
+/-
esc
set tempo
stop
Contributor
this song is pretty easy to learn and fun to play so enjoy!!


Intro

e|---------------------------------|
B|---------------------------------|
G|---------------------------------|
D|---9------7------5-----7---------|
A|---9-x8---7-x8---5-x8--7-x8------|
E|---7------5------3-----5---------|


verse 
e|---------------------------------|
B|---------------------------------|
G|---9------7------5-----7---------|
D|---9-x8---7-x8---5-x8--7-x8------| x3
A|---7------5------3-----5---------|
E|---------------------------------|

Whooo...
Yeah.Yeah.Yeah.Yeah! 

How to choose?
Who to be? 
Well, let's see
There are so many choices now.
Play guitar, be a movie star.
In my head, a voice says

e|---------------|    |-------------------------|
B|---------------|    |-------------------------|
G|---5------7----|    |---7---------------------|
D|---5-x8---7-x8-| x2 |---7-x8---5-x8--7-x8-----|
A|---3------5----|    |---5------5-----7--------|
E|---------------|    |----------3-----5--------|

Why not, try everything?
Why stop, reach for any dream? 
I can rock, cause it's my life.
And now's the time

chorus
e|----------------------------|    |--------------------------------|
B|----------------------------|    |--------------------------------|
G|---------5-------7-----5----|    |--------------5-----------------|
D|---5-x8--5--x8---7-x8--5-x8-| x3 |--5-x8--7-x8--5-----------------|
A|---5-----3-------5-----3----|    |--5-----7-----3-----------------|
E|---3------------------------|    |--3-----5-----------------------|

Who will I be? 
It's up to me
All the never ending possibilities
That I can see
There's nothing that I can't do
Who will I be? 
Yes, I believe
I get to make the future what I want to
If I can become anyone and know the choice is up to me
Who will I be? 

e|---------------------------------|
B|---------------------------------|
G|---9------7------5-----7---------|
D|---9-x8---7-x8---5-x8--7-x8------|
A|---7------5------3-----5---------|
E|---------------------------------|
Yeah yeah... 

verse 
e|---------------------------------|
B|---------------------------------|
G|---9------7------5-----7---------|
D|---9-x8---7-x8---5-x8--7-x8------| x3
A|---7------5------3-----5---------|
E|---------------------------------|

If I decide, 
I'm the girl to change the world
I can do it any time.
Opportunity right in front of me
And the choice is all mine

e|---------------|    |-------------------------|
B|---------------|    |-------------------------|
G|---5------7----|    |---7---------------------|
D|---5-x8---7-x8-| x2 |---7-x8---5-x8--7-x8-----|
A|---3------5----|    |---5------5-----7--------|
E|---------------|    |----------3-----5--------|

Why not, try everything? 
Why stop, reach for any dream? 
I can rock, cause it's my life.
And now's the time

chorus
e|----------------------------|    |--------------------------------|
B|----------------------------|    |--------------------------------|
G|---------5-------7-----5----|    |--------------5~----------------|
D|---5-x8--5--x8---7-x8--5-x8-| x3 |--5-x8--7-x8--5~----------------|
A|---5-----3-------5-----3----|    |--5-----7-----3~----------------|
E|---3------------------------|    |--3-----5-----------------------|

Who will I be? 
It's up to me
All the never ending possibilities
That I can see
There's nothing that I can't do
Who will I be? 
Yes, I believe
I get to make the future what I want to
If I can become anyone and know the choice is up to me
Who will I be? 

bridge
e|---------------------------|    
B|---------------------------|  
G|---5~---5~---7-------------|   
D|---5~---5~---7-x8----------| 
A|---3~---3~---5-------------|   
E|---------------------------| 
                   
I wanna find out who I am inside.
Who will I be? 
I wanna show the, the way that I can shine... 

e|---------------------------------|
B|---------------------------------|
G|---9------7------5-----7---------|
D|---9-x8---7-x8---5-x8--7-x8------|x2
A|---7------5------3-----5---------|
E|---------------------------------|


Yeah... Oh yeah... yeah... 


chorus

e|----------------------|
B|----------------------|
G|-----5--7------5------|
D|--5--5--7-x2---5-x8---|
A|--5--3--5------3------|
E|--3-------------------|

e|----------------------------|    |--------------------------------|
B|----------------------------|    |--------------------------------|
G|---------5-------7-----5----|    |--------------5~----------------|
D|---5-x8--5--x8---7-x8--5-x8-| x2 |--5-x8--7-x8--5~----------------|
A|---5-----3-------5-----3----|    |--5-----7-----3~----------------|
E|---3------------------------|    |--3-----5-----------------------|

Who will I be? 
It's up to me
All the never ending possibilities
That I can see
There's nothing that I can't do
Who will I be? 
Yes, I believe
I get to make the future what I want to
If I can become anyone and know the choice is up to me
Who will I be? 

e|-----------------------------------------|
B|-----------------------------------------|
G|-----------------------------------------|
D|---9------7------5-----7-----9---7---5---|
A|---9-x8---7-x8---5-x8--7-x8--9---7---5---|
E|---7------5------3-----5-----7---5---3---|

Whooo... who will I be? 
E D G
Who will I be!
comments
print report bad tab
1 comment total.
+1 reply
NancyPurvis wrote on July 19 2008, 04:48 am

sounds perfect! thanks!

I want to post or [tab]
guest
You may want to rate the tab now too:
select rating
Please do not post tabs as comments. Select "correction" instead!