Oops, an error
Loading. Please wait.

Wonderful Christmas Time Chords

19,880 views 27 this week
no commentswrite comment
1 2 3 4 5
worth learning
x 4
add to favorites
launch autoscroll
font size
0
reset
transpose
0
reset
simplify chords
- display chords -
guitar tuner
Tab Pro tools
  • play this tab
  • loop segment
  • change instrument
  • show fretboard
  • metronome
Autoscroll
slow
fast
+/-
esc
set tempo
stop
Contributor
Demi Lovato
Wonderful Christmas Time
Submitted by: paramore_fans@yahoo.com

Key: G

Tuning: Standard EADGBe

Chords used:
G -   320033
D -   xx0232
Em -  022000
C -   x32010
Am -  x02210
Bm -  x24432
Cm -  x35543
G/B - x2x033


Intro: G--Em--Am--D--

G D             G
   La la da dee da


Guitar 2:
e|--------------------------------15--15/19---19------15--15--15--17----|
B|-15\12---------------12--13-15------------------15-----------------15-|
G|--------12-14--12-14--------------------------------------------------|
D|----------------------------------------------------------------------|
A|----------------------------------------------------------------------|
E|----------------------------------------------------------------------|


Verse 1:
G
  The mood is right
The spirits up
Were here tonight
And that's enough


Chorus 1:
Am  D  Bm Em
Simply ha-ving a
C         Cm        G
wonderful Christmas time
Am  D  Bm Em
Simply ha-ving a
C         Cm        G
wonderful Christmas time


Verse 2:
G
  The party's on
The feelings here
That only counts
This time of year


Chorus 2:
Am  D  Bm Em
Simply ha-ving a
C         Cm        G
wonderful Christmas time
Am  D  Bm Em
Simply ha-ving a
C         Cm        G
wonderful Christmas time


Bridge:
G     Bm       Am
  The quire of children
D          G
sing their song
     Bm       Am  D    G
They practice all year long
Ding dong ding dong
               C
Ding dong ding dong
            G/B Am
la la la la la
            G C G/B
la la la la la


Interlude: G--

Guitar 2:
e|--------------------------------15--15/19---19------15--15--15--17----|
B|-15\12---------------12--13-15------------------15-----------------15-|
G|--------12-14--12-14--------------------------------------------------|
D|----------------------------------------------------------------------|
A|----------------------------------------------------------------------|
E|----------------------------------------------------------------------|


Chorus 3:
Am  D  Bm Em
Simply ha-ving a
C         Cm        G
wonderful Christmas time
Am  D  Bm Em
Simply ha-ving a
C         Cm        G
wonderful Christmas time


Verse 3:
G
  The word is out
About the town
So lift your glass
And don't look down


Chorus 4:
Am  D  Bm Em
Simply ha-ving a
C         Cm        G
wonderful Christmas time
Am  D  Bm Em
Simply ha-ving a
C         Cm        G
wonderful Christmas time
Am  D  Bm Em
Simply ha-ving a
C         Cm        G
wonderful Christmas time
Am  D  Bm Em
Simply ha-ving a
C         Cm        G(hold)
wonderful Christmas time
comments
print report bad tab
I want to post or [tab]
guest
You may want to rate the tab now too:
select rating
Please do not post tabs as comments. Select "correction" instead!